FIND YOUR SONG BOOK
CLICK HERE FOR ADVANCED SEARCH

You are here » Nepali Song Chord » Nepathya » Aaganai bhari

Aaganai bhari

Band : Nepathya
Musician : Same
Lyricist : Not Available
C                          F
Aanganai bhari hiun nai jhare
     G                     C
Aaru phoola hai tipi rakhe hai
C                      F          G        C
Lekaima bhari baisa ma phoole Mayako muskanma
              F         G         C
Samjhi deu sumpi deu yo jovan hamilai


E|-------------------------------------------------3-1-0---------|
B|-----------------------------------------------0-------3-1-0-1-|
G|--------------------------0-2-0------0-2---0-2-----------------|
D|---------0-2-0------0-2-3-------3--3-----3---------------------|
A|---0-2-3-------3--3--------------------------------------------|
E|-3-------------------------------------------------------------|


C                F                       C
Khola nala susai dinchan timrai sargam haruma
           F       G        C
Chadani raatama samjhi base   hai
              F         G
Yo jeevan mai aaunla baadala bhai
                 C
Tyo ramailo gaaunma



E|-------------------------------------------------------------------------------|
B|---5-3h5-3-------------3-3h5-3-----3---3-3h5p3h5p3---1-1h3p1h3p1---3-----------|
G|-5---------5---5---2-5---------5-----4-------------2-------------4---5-4-2-1-5-|
D|-------------5---5---------------5---------------------------------------------|
A|-------------------------------------------------------------------------------|
E|-------------------------------------------------------------------------------|


C          F                    C
Mera yi raataharu yaadma bitirahecha
                F          G         C
Bhawanama hamro prem lai sajai rakhe hai




POST YOUR COMMENTS

OTHER SONGS FROM NEPATHYA
T Goreto gaunko duldai Added on 8th Jun 2011 5037 hits
C Binti cha mero Added on 10th May 2011 9419 hits
C Gandaki ko tiraima Added on 29th Apr 2011 12768 hits
C Yo Jindagani Added on 23rd Apr 2011 28966 hits
C Rangeen Chara Added on 10th Feb 2008 19365 hits
C Timro Aagaman Added on 27th Aug 2006 6292 hits
C Ghar ko kura Added on 11th Jul 2006 4475 hits
T Jomsom Bazaarma Added on 26th Feb 2006 25868 hits
C Chekyo Chekyo Added on 18th May 2005 24597 hits
T Chari maryo sisao ko goli le Added on 23rd Apr 2005 33742 hits
T Aaganai bhari Added on 25th Feb 2003 29201 hits
T Godhuli saanjhama Added on 24th Feb 2003 12159 hits
NepaloPedia Advertise
NSC APP