FIND YOUR SONG BOOK
CLICK HERE FOR ADVANCED SEARCH

You are here » Nepali Song Chord » Miscellaneous » Antim Lakshya

Antim Lakshya

Singer : Miscellaneous
Musician : Same
Lyricist : Not Available
Provided by: Sulav Khadka
Intro:The Mouth Organ Part

(C Am F G)*2
E|--8-8-10-12-13--12-10-12-10--8-8-10-12--17-15-13-12-10-8----|
B|------------------------------------------------------------|
G|------------------------------------------------------------|
D|------------------------------------------------------------|
A|------------------------------------------------------------|
E|------------------------------------------------------------|

 C          Am        F          G
Timro tyo herai ma euta chuttai nasa cha
 C          Am        F      G
timile herda yaha kohi ramnecha
 c          Am       F       G
timro tyo boli ma koiliko aawaz cha
 C      Am      F      G
timile bolada yaha kohi sundacha...
 F                    G
timro khusi nai mero jiwan ko
 F                    G
Pahilo ra antim lakshya ho
 F                    G
Timro rachana nai ishwor ko o
 F                    G
Shristi lai sundar upahar ho ho
 C     Am      F       G
(Timro maya ma dubi herda)*2
Solo:Solo guitar must be with effect

E|-------15-----------------------------------|
B|13S15----13/1213---15---(13)--12-----------|*2
G|--------------------------------------------|
D|--------------------------------------------|
A|--------------------------------------------|
E|--------------------------------------------|

 C     Am     F         G
Timro maya ma khusi ko bahar cha
 C     Am     F         G
Timro sath ma swarga ko ananda cha a
 F                   G
Timilai hasaunu nai mero maya ko
 F                G
Pahilo ra antim lakshya ho o ho
 F                 G
Timro rachana nai ishwor ko
 F                 G
Shristi lai sundar upahar ho..ho
 C     Am      F     G
(Timro maya ma dubi herda)*2

Solo:You must listen to the music many times than you can tab it well

E|---------------------------------------------------------------------------|
B|----------------------8----------------------------------8------------8----|
G|-5-5S7-5-7-5-5-77-7S9---9-7-9-7-5-7-5---------5-7-7S9-999---9-7-7S9-99--9-7-|
D|--------------------------------------7-5-5-7------------------------------|
A|---------------------------------------------------------------------------|
E|---------------------------------------------------------------------------|

E|---------------------------------------------------------------------|
B|-8S10-10-10-8-8-10-8-10-12-13-15P-15-13-12-13P-12-10-13-12-106-6S17-|
G|---------------------------------------------------------------------|
D|---------------------------------------------------------------------|
A|---------------------------------------------------------------------|
E|---------------------------------------------------------------------|

E|--------------------------------------|
B|-17-20-18-17-15-18-17-15----------13--|
G|------------------------12s14-14------|
D|--------------------------------------|
A|--------------------------------------|
E|--------------------------------------|

C
Timro tyo muskan ma jun ko ujjyalo cha
Timro isparsha ma euta chuttai abhas cha
Timro tyo kura ma euta ananta sagar cha
Timro barnan ma euta chuttai mitthas cha
Timilai paunu nai mero jiwan ko ho
Philo ra antim lakshya ho ho ho
Timro rachana nai ishwor ko
Shristi lai sundar upahar ho..ho
(Timro maya ma dubi herda)*4





POST YOUR COMMENTS

OTHER SONGS FROM MISCELLANEOUS
C Kun baat ma jaandai chau Added on 23rd Jul 2016 1872 hits
C Saune Jharima Added on 13th Mar 2013 3540 hits
C Shanti lukau kahan Added on 27th Oct 2012 5310 hits
C Mutu mero chudi lagin Added on 3rd Oct 2012 3225 hits
C Samhali rakhe yo man Added on 26th Aug 2012 1924 hits
T Tyo_pari_dandaima Added on 21st Jul 2012 3610 hits
C Chari udyo baadal chuna lai Added on 9th Jan 2012 10387 hits
C Memories Added on 7th Jan 2012 2549 hits
C Ke bhanne hamro samaya Added on 2nd Oct 2011 11716 hits
T Tunguna ko dhunma Added on 27th Aug 2011 7300 hits
T Rastriya Gaan Added on 5th Aug 2007 10921 hits
C Bidesh Jane Mayalu Added on 27th Aug 2006 12944 hits
C Malai Maaf gari deu Added on 27th Aug 2006 11687 hits
C SADHAI MA Added on 27th Aug 2006 4998 hits
C Pahilo Maya Added on 11th Jul 2006 7656 hits
C Thakeko e nayan ma Added on 26th Feb 2006 4050 hits
T Antim Lakshya Added on 4th Feb 2006 9947 hits
C Cham cham Added on 27th Jan 2006 7416 hits
C Samaya Added on 14th Jan 2006 5600 hits
C Ma sadhai Added on 14th Jan 2006 5982 hits
C Bujina maile Added on 14th Jan 2006 5916 hits
T Pheri Pani Timro Tasbir Added on 29th Aug 2005 7124 hits
C Saano ma Added on 2nd Jun 2005 8040 hits
C Aakhir tada bhai halyou Added on 31st May 2005 9833 hits
T Phool ko ankhaama Added on 23rd May 2005 15656 hits
C ankha bhari Added on 8th May 2005 6971 hits
C Saagar jhain gahiro Added on 8th Sep 2004 6220 hits
T Lajaalu muskanle preyasi Added on 11th Aug 2004 15969 hits
C Jaagen jaagen sara raat Added on 11th Aug 2004 5087 hits
C Timilai chahanu maile Added on 2nd Dec 2003 5185 hits
C Sanjhaima eklai aauna Added on 2nd Dec 2003 3958 hits
C Eklai eklai ma Added on 21st Feb 2003 4565 hits
C Preet bina youban Added on 13th Feb 2003 4676 hits
C Ma aaphaima haraaunchu Added on 3rd Feb 2003 3292 hits
C Kun desh ki pari hau timi Added on 24th Jan 2003 4363 hits
C Kati baschau ori laajko ghumto Added on 24th Jan 2003 6342 hits
C Gairi Khetko Shirai Hanyo Added on 17th Jan 2003 12092 hits
T Asarai Mahinama Added on 15th Jan 2003 30207 hits
NepaloPedia Advertise
NSC APP