FIND YOUR SONG BOOK
CLICK HERE FOR ADVANCED SEARCH

You are here » Nepali Song Chord » Deepak Kharel » Badal banaideu

Badal banaideu

Singer : Deepak Kharel
Musician : Same
Lyricist : Not Available

(Chords may be 1 or half scale lower than original)

 Intro :
 Music Piece:

E|--------1---------------------------0---------0--------|
B|-1----3---3--3-1----------------------3-1-------3-1----|
G|-----------------2-0---0-2s5-0h2-0--------2-0----------|
D|---------------------3---------------------------------|
A|-------------------------------------------------------|
E|-------------------------------------------------------|


C                  F             C
Badal banai deu aakar badalna saknu
      Dm       F        C
Chyamata dilai deu Jiundai ma jalna saknu


E|------------------------------------------------------------------------------------------|
B|------------------1------------------------------3-1-0-0-1-1-1-1--------------------------|
G|--------------------2-0-----------0-2-0-2-2-2-2------------------------0-0h2-3------------|
D|---0-2-0-2-2-2----------3-3-3---3----------------------------------2-0-------------2-1----|
A|-3---------------------------------------------------------------3----------------------3-|
E|------------------------------------------------------------------------------------------|

C                        F      C
Jaun kasaro jaun aphnai laasko malami
      Dm                   G       C
Chupa chap sahun kasari aphnai badanami
    C              F             C
Sasto banai deu bajarma chalna sakun
Chyamata dilai deu ...........

E|-------5-3-3-------------------------------------|
B|---3-5---------3-5---3-------1-------------------|
G|-5-----------5-----5---2---2---2-0---------------|
D|-----------------------------------0-5-3-0-------|
A|-------------------------------------------2-3---|
E|-------------------------------------------------|

C                     F             C
Pheri chalau goli ghaite banai narakha
   Dm                 G            C
Chitama jalna deu chintama jalai narakha
C                    F              C
Laajhin banai deu sadakma dhalna sakun
Chyamata dilai deu.............





POST YOUR COMMENTS

OTHER SONGS FROM DEEPAK KHAREL
T Mutu bhari sancherai pani Added on 8th Mar 2013 1475 hits
C Yo karma bhumi ko anganma Added on 28th Jun 2012 3997 hits
T Poornima ko raat pani Added on 22nd Apr 2005 10068 hits
C Pratiksya gara meri mayalu Added on 26th Aug 2004 11448 hits
C Upekshyako Laharma Added on 26th Aug 2004 2728 hits
C Ti aankhaharu bhitrako Added on 17th Aug 2004 2980 hits
C Timro har prasnako jawaf Added on 5th Sep 2003 9361 hits
C Timro tyo Hansilo Muharako Added on 17th Jan 2003 16786 hits
T Badal banaideu Added on 13th Jan 2003 9272 hits
NepaloPedia Advertise
NSC APP