FIND YOUR SONG BOOK
CLICK HERE FOR ADVANCED SEARCH

You are here » Nepali Song Chord » Robin N Looza » Bhool ma bhulyo

Bhool ma bhulyo

Band : Robin N Looza
Musician : Same
Lyricist : Not Available
Provided by: luju, saten
Intro:
pick from downwards intro only
E||------------------|--x--8--x--8--x--8--x--8--|--x--8--x--8--x--10--x--9--|
B||------------------|--x--8--x--8--x--8--x--8--|--x--8--x--8--x--10--x--9--|
G||------------------|--x--9--x--9--x--9--x--9--|--x--9--x--9--x--10--x--9--|
D||------------------|--------------------------|---------------------------|
A||------------------|--------------------------|---------------------------|
E||------------------|--------------------------|---------------------------|

--x--8--x--8--x--8--x--8--|--x--8--x--8--x--10--x--9--|
--x--8--x--8--x--8--x--8--|--x--8--x--8--x--10--x--9--|
--x--9--x--9--x--9--x--9--|--x--9--x--9--x--10--x--9--|
--------------------------|---------------------------|
--------------------------|---------------------------|
--------------------------|---------------------------|

MAIN RIFF
E||--------------------------|
B||--------------------------|
G||--5--5--x--x--5--x--x--5--|
D||--5--5--x--x--5--x--x--5--|
A||--3--3--x--x--3--x--x--3--|
E||--------------------------|

--------------------------|--------------------------|
--------------------------|--------------------------|
--x--5--x--x--------------|--5--5--x--x--5--x--x--5--|
--x--5--x-----2h-3p-2-----|--5--5--x--x--5--x--x--5--|
--x--3--3--5-----------3--|--3--3--x--x--3--x--x--3--|
--------------------------|--------------------------|

--------------------------
--------------------------
--x--5--x--x--------------
--x--5--x-----2h-3p-2-----
--x--3--3--5-----------3--
--------------------------

first solo
|--------------------------|
|----------15----15----13--|
|--12----------------------|
|--------------------------|
|--------------------------|
---------------------------|

------------------------------|--------------------------|
--13------12--13p-12h-13p-12--|----------15----15----12--|
------------------------------|--12----------------------|
------------------------------|--------------------------|
------------------------------|--------------------------|
------------------------------|--------------------------|

-------------------------------|----15--15--------------------|
--13-------12--13p-12h-13p-12--|------------15--15--13----12--|
-------------------------------|------------------------------|
-------------------------------|------------------------------|
-------------------------------|------------------------------|
-------------------------------|------------------------------|

-----------------------------|----15--15--------------------|
--12h-13p-12-----------------|------------15--15--13----12--|
----------------14-----12----|------------------------------|
-----------------------------|------------------------------|
-----------------------------|------------------------------|
-----------------------------|------------------------------|

--------------------------------|--------------------------|
--13p-12h-13p-12--12------------|------15----13--12----15~-|
----------------------14----12--|--------------------------|
--------------------------------|--------------------------|
--------------------------------|--------------------------|
--------------------------------|--------------------------|

--------------------------|------------------------------|
----15~-----13--12----12--|--12--------------------------|
--------------------------|--------14----14p-12------12--|
--------------------------|----------------------14------|
--------------------------|------------------------------|
--------------------------|------------------------------|

----------------------|------15~-------------15--|----15--15------------------|
----------------------|------------15--13--------|------------15----13----12--|
----14----12----------|--------------------------|----------------------------|
----------------------|--------------------------|----------------------------|
----------------------|--------------------------|----------------------------|
----------------------|--------------------------|----------------------------|

------------------------------|------------------------|------|------|------|
----12h-13p-12----------------|------------------------|------|------|------|
----------------14--12--------|--14--14----12----------|------|------|------|
--------------------------14--|------------------------|------|------|------|
------------------------------|------------------------|------|------|------|
------------------------------|------------------------|------|------|------|

second solo
with slider and effects

------|-------------------------|--------------------|
------|----------------------6/-|----5/--------------|
------|------2/5----2/5/--------|---------------3----|
------|-------------------------|--------------------|
------|-------------------------|--------------------|
------|-------------------------|--------------------|
---------------------------|--------------------|-----------------------|
------------------------8--|----8~---------8/---|-------6--5~-----------|
--2/5---2/5---2/5/---------|--------------------|--5------------5~---5~-|
---------------------------|--------------------|-----------------------|
---------------------------|--------------------|-----------------------|
---------------------------|--------------------|-----------------------|
---------------------|----------------------|------------------------|
---------------------|----------------------|-------------------6/---|
----5~---5~-----5/---|----------------------|------------------------|
---------------------|----------------------|-----5----------3~------|
---------------------|--3------3----3----3--|--3~----3--3~-----------|
---------------------|----------------------|------------------------|

----------------------------|------------------------|
--13~---13~---13~---13~-13/-|------------5--6~-5-----|
----------------------------|----5----5-----------5/-|
----------------------------|------------------------|
----------------------------|------------------------|
----------------------------|------------------------|

--------------------------|---------------------|------------------------|
----13~---13~---13~---13--|--13/-----8~---------|---------5--6--5~-------|
--------------------------|---------------------|------5-----------5--4--|
--------------------------|---------------------|------------------------|
--------------------------|---------------------|------------------------|
--------------------------|---------------------|------------------------|

-------------------------|-----------------------|-------------------------|
--6--5~------------6--5--|------------6--5-------|-------6--6--6/-5--5/-1/-|
----------4--5--5--------|------5--5----------5--|--5----------------------|
-------------------------|-----------------------|-------------------------|
-------------------------|-----------------------|-------------------------|
-------------------------|-----------------------|-------------------------|

------------------1/---|----------12--------|------------------|
-----------------------|--------------------|------------------|
--2----2--5----5-------|--------------------|------------------|
-----------------------|--------------------|------------------|
-----------------------|--------------------|------------------|
-----------------------|--------------------|------------------|




POST YOUR COMMENTS

OTHER SONGS FROM ROBIN N LOOZA
T Bhool ma bhulyo Added on 14th Jan 2006 14963 hits
C Dum Maro Dum Added on 9th Jun 2005 15913 hits
T Chiso Chiso Hawama (Robin) Added on 20th Nov 2004 12800 hits
T Starry Starry night Added on 14th Aug 2004 5277 hits
NepaloPedia Advertise
NSC APP