FIND YOUR SONG BOOK
CLICK HERE FOR ADVANCED SEARCH

You are here » Nepali Song Chord » Rohit John Chettri » Bistarai Bistarai

Bistarai Bistarai

Singer : Rohit John Chettri
Musician : Same
Lyricist : Same
Rohit John Chettri came up with the lyrics to Bistarai when he was in his house, ditching school. At the time, a bus was ambushed, causing the death of 19 passengers. A compassionate Rohit found himself writing the song. The lyrics of the song with its melancholy theme, has really reached out to those who have experienced love and loss in their lives.


E         B        E        
Bistarai bistarai dubdai chu timro
E               B
Maya ko sagarma ma
      E         B       E
Dukha asu sabai birsera ramna chahanchu
       E              B
Timrai nyano angaloma ma
         E          A        B
Khula pankha fijai akash ma udeko chari jhai
E                    B   
Mukta huna chahanchu ma
             E   A
Timro mayama mah ahh
E                          B          
Dubna chahanchu timrai mayama
E
Ramna chahanchu mah


 
  C#m7    B   E            C#m7  B    E
Sahara bani deu timi mero khusi bani deu
  C#m7    B   E            C#m7  B    E
Sahara bani deu timi mero khusi bani deu
            G#m             F#m        B              E
Andhakar ko ujayali juneli raat ko jun timi mero bani deu
            G#m             F#m        B              E
Andhakar ko ujayali juneli raat ko jun timi mero bani deu

 


E         B        E                                 B
Sustarai sustarai gaudai cha yo manle geet timrai namko
E        B        E
Bistarai bistarai
E        B       E
Sustarai sustari

 

 

E|----------------------------------|------------------------------|
B|----12-12-10-9-7---7-7/9-10-9-|--12-12-10-9-7---7-7/9-7-0-|
G|---9-------------9------------|-9-------------9-----------|
D|------------------------------|---------------------------|
A|------------------------------|---------------------------|
E|------------------------------|---------------------------|
 

E|----------------------------------------|-9/12-11-7-7/9-16-16-|
B|-0--------------------------11/12-12--9-|---------------------|
G|--6-8/9-11-11/13-11-11--9-9---------11--|---------------------|
D|----------------------------------------|---------------------|
A|----------------------------------------|---------------------|
E|----------------------------------------|---------------------|



 

E|--------------------------------------|-11/12-12------------------------|
B|----------------------11/12-12--9-|----------12/14-12-12-9-7-7---|
G|---9-11-11/13-13--9-9---------11--|----------------------------9-|
D|-11-------------------------------|------------------------------|
A|----------------------------------|------------------------------|
E|----------------------------------|------------------------------| 

 

 

 


E         B        E                

Bistarai bistarai dubdai chu timro

E               B

Maya ko sagarma ma

      E         B       E

Dukha asu sabai birsera ramna chahanchu

       E              B

Timrai nyano angaloma ma

         E          A        B

Khula pankha fijai akash ma udeko chari jhai

E                    B   

Mukta huna chahanchu ma

             E   A

Timro mayama mah ahh

E                          B          

Dubna chahanchu timrai mayama

E

Ramna chahanchu mah

 

  C#m    B   E            C#m   B    E

Sahara bani deu timi mero khusi bani deu

  C#m    B   E            C#m   B    E

Sahara bani deu timi mero khusi bani deu

            G#m             F#m        B              E

Andhakar ko ujayali juneli raat ko jun timi mero bani deu

            G#m             F#m        B              E

Andhakar ko ujayali juneli raat ko jun timi mero bani deu

 

E         B        E                                 B

Sustarai sustarai gaudai cha yo manle geet timrai namko

E        B        E

Bistarai bistarai

E        B       E

Sustarai sustari

 

 

 

E:|------------------------------|---------------------------|

B:|----12-12-10-9-7---7-7/9-10-9-|--12-12-10-9-7---7-7/9-7-0-|

G:|---9-------------9------------|-9-------------9-----------|

D:|------------------------------|---------------------------|

A:|------------------------------|---------------------------|

E:|------------------------------|---------------------------|

 

E:|----------------------------------------|-9/12-11-7-7/9-16-16-|

B:|-0--------------------------11/12-12--9-|---------------------|

G:|--6-8/9-11-11/13\11-11--9-9---------11--|---------------------|

D:|----------------------------------------|---------------------|

A:|----------------------------------------|---------------------|

E:|----------------------------------------|---------------------|

 

 

E:|----------------------------------|-11/12-12---------------------|

B:|----------------------11/12-12--9-|----------12/14-12-12-9\7-7---|

G:|---9-11-11/13-13--9-9---------11--|----------------------------9-|

D:|-11-------------------------------|------------------------------|

A:|----------------------------------|------------------------------|

E:|----------------------------------|------------------------------|

 

 





POST YOUR COMMENTS

Video of the Song

OTHER SONGS FROM ROHIT JOHN CHETTRI
C Timra dui aankha le Added on 14th May 2016 2812 hits
C Pani Paryo Added on 13th May 2016 7317 hits
T Bistarai Bistarai Added on 8th Sep 2014 20042 hits
NepaloPedia Advertise
NSC APP