FIND YOUR SONG BOOK
CLICK HERE FOR ADVANCED SEARCH

You are here » Nepali Song Chord » Deep Shrestha » Biteka kura

Biteka kura

Singer : Deep Shrestha
Musician : Same
Lyricist : Not Available
Em       Bm    D            Em
Biteka kura le   kehi choot lagda
Em        D     C              Em
Timi tada hunda   dherai dukha lagcha
Em           D             Bm            G
Malai jastai   timlai pani   testai huna sakcha
Em           D             Bm             G      B
Malai jastai   timlai pani    testai huna sakcha aa
Em       Am           Em
Meri mayalu Meri mayalu

E|-----------------------------------------------------|
B|-----------------------------------------------------|
G|---------------2-4----------------------------2-4----|
D|-2-4-2-5---4-5-----4--4-2-------------4---4-5-----2--|
A|--------------------------5-3---5-3-5----------------|
E|-----------------------------------------------------|

E|---------------5-7-----------------------------5-7----|
B|-5-7-5-8---7-8-----7---7-5-------------7---7-8-----5--|
G|---------------------------7-5---7-5-7----------------|
D|------------------------------------------------------|
A|------------------------------------------------------|
E|------------------------------------------------------|

Em        D           G             Em
Sapana le saath dinda   sangai base    jasto lagcha
Em       B            G             Em
Bipanale jhaskai dindaa chot aajhai balji dincha
Em       B           G              Em            C C
Bipanale jhaskai dindaa chot aajhai balji dincha

Em          D           G        Em
Kalpi kalpi ronye bhane timi kahile narunu
Em         B           G             Em
Milan nabhayi bite bhanee timi bichalit nahunu
Em         Bm           G           Em          C C
Milan nabhayi bite bhane  timi bichalit nahunu




POST YOUR COMMENTS

OTHER SONGS FROM DEEP SHRESTHA
C Ma ta door dekhi aayen Added on 12th May 2011 12384 hits
C Kasto Rahecha Jeevan mero Added on 3rd Apr 2007 4127 hits
C Ma pathar ko devata hoina Added on 17th Jun 2006 5463 hits
C Mero aankhama hardam Added on 7th Aug 2004 18578 hits
C Adharko Muskan ta kehi hoina Added on 15th Jan 2003 4959 hits
C Timi Aakasko Joon bhayou Added on 15th Jan 2003 3929 hits
C Dinko Ujyaloma Lukai Rakchu Added on 15th Jan 2003 4434 hits
T Hnu yatri euta Added on 13th Jan 2003 8196 hits
T Kati kamjor rahecha Added on 13th Jan 2003 21950 hits
T Biteka kura Added on 13th Jan 2003 27023 hits
NepaloPedia Advertise
NSC APP