FIND YOUR SONG BOOK
CLICK HERE FOR ADVANCED SEARCH

You are here » Nepali Song Chord » Sanjaya Shrestha » Chadi jaane mayaluko

Chadi jaane mayaluko

Singer : Sanjaya Shrestha
Musician : Same
Lyricist : Not Available
            

E|-------------|-2---------|-------------------5-4--------------------------|
B|-------------|---5-3-2---|-----------2-3s5-------7-7-5--------------------|
G|-6-7-6-4---4-|---------4-|-----1-2-4-------------------7-7-6-4---7-6-4----|
D|---------7---|-----------|-2-4---------------------------------6-------2--|
A|-------------|-----------|------------------------------------------------|
E|-------------|-----------|------------------------------------------------|

E|------------------------------|
B|------------------------------|
G|------------------------------|
D|-7-6-4--4-2-------------------|
A|------------5-5-4-2---5-4-2---|
E|--------------------3-------5-|


A            Bm
Chaadi jaane mayaluo kati dherai maya
           D                          A
Dina dhali  saanjha parcha uti badcha maya


A                                 Bm
Raatama bolaaunchan dherai joonka seetal kiranle
                                A
Tolauncha heri malai joona bani timro muhar
A            Bm                     A
Chaatima nai raakhun ki aankhaima lukaaunki
            Bm
Birsi jaane nisthuriko kati dherai maya


A                                 Bm
Dherai dherai raataharu sunyatama bitaisaken
                                  A
Sapaniko gahirai bhitra titopanko aabhas paayen
           Bm                         A
Tesaile ta hamro jeevan ghaam chaayan ho ki bhanchu
A              Bm
Aaunchu bhanne nisthuriko kati dherai maya




POST YOUR COMMENTS

OTHER SONGS FROM SANJAYA SHRESTHA
C Euta gaun thiyo Added on 17th Aug 2013 5148 hits
C timi bina sansar birano Added on 29th May 2011 1977 hits
C Tyo mutulai choyera Added on 9th Aug 2008 13526 hits
C Tada Najai deu timi Added on 17th Jun 2006 6875 hits
C Maya Meri Maya Added on 15th Feb 2006 16116 hits
T Choyera bhanchu yo mutulai Added on 3rd Feb 2003 3079 hits
C Jaau timi jaau Added on 3rd Feb 2003 3025 hits
T Chadi jaane mayaluko Added on 3rd Feb 2003 3112 hits
T Tada bhayera k huncha Added on 3rd Feb 2003 2770 hits
T Manale khai kasalai Added on 3rd Feb 2003 2475 hits
NepaloPedia Advertise
NSC APP