FIND YOUR SONG BOOK
CLICK HERE FOR ADVANCED SEARCH

You are here » Nepali Song Chord » Babin Pradhan » Chahanchu ma

Chahanchu ma

Singer : Babin Pradhan
Musician : Same
Lyricist : Not Available
Play song in plugging ...
Pattern is T 1 2 1 3 2 1 2
But change plugging pattern as follow in some part.

Changing chord from [ Am ] to [ C ] like in ..... timi phool jastai, madhoor subas ......
  Am                 C
E|---------0--------|--------0-------|
B|-----1-----1------|-----1----1---1-|
G|---2---2----------|---0-- 0----0---|
D|------------------|----------------|
A|-0------------0-2-|----------------|
E|------------------|-3--------------|

Changing chord from [ G ] to [ C ] like in ... shital prakash chardai, aau mero andhero sansar
  G                   C
E|------------------|---------0------|
B|----0-------------|-----1-----1---1|
G|--0---------------|---0---0-----0--|
D|------------------|----------------|
A|--------0---2-----|----------------|
E|-3----3-----------|-3--------------|

G         Em      Am           C
Chahanchu ma timi phool jastai
C                     G
Madhoor subash chardai aau
G      Em        Am          C
Parkhi baschu ma joon jastai
C                    G
Sital Prakash chardai aau

C         Em                 G      C Em Am
   Mero andhero sansaarma sandhai timi
Am      D       G
Tara bani chamkideu
C         Em                G       C Em Am
   Mero sunsaan akaasma sandhai sandhai
Am        D        G
Sangeet bani gunji deu

Additional Lyrics
Mero niraas nazarma sadhain timi
Aasha bani jhalki deu
Mero ujaad bihan ma sandhai sandhai
Sit bani aaideu





POST YOUR COMMENTS

OTHER SONGS FROM BABIN PRADHAN
C Ho timi nai chahe Added on 9th May 2011 2130 hits
T Mohani layo Added on 7th May 2011 2421 hits
T Gayo Gayo Jawani Gayo Added on 2nd May 2011 2105 hits
T Chahanchu ma Added on 20th Aug 2005 4301 hits
T Jhari Pareko din Added on 20th Aug 2005 13485 hits
NepaloPedia Advertise
NSC APP