FIND YOUR SONG BOOK
CLICK HERE FOR ADVANCED SEARCH

You are here » Nepali Song Chord » Mukti And Revival » ChaubandiCholo

ChaubandiCholo

Band : Mukti And Revival
Musician : Same
Lyricist : Not Available
Provided by ANISH KOIRALA
THIS SHIT'S 100% CORRECT... GOOD SONG.........]

"ALL THE TABLATURE ARE CORRECT " IN THE FURTHER PART OF THE SONGS....
I'VE PLACE CHORDS LISTEN TO THE SONG AND FIGURE OUT WHERE TO FIT IN THE RIFFS""
INTRO........(GRAND PIANO)
E||----------------------|------------------------|----------------------|
B||--1------1--------0h1-|------1------3----3-----|--1------1--------0h1-|
G||--0------2------------|--2---2------4-------4--|--0------2------------|
D||--2------2------------|----2-3------5----------|--2------2------------|
A||--3------0------------|------3------5----------|--3------0------------|
E||----------------------|------1------3----------|----------------------|

INTRO CLOSING
-------------------------|
------1------3----3------|
--2---2------4-------4---|
----2-3------5---------5-|
------3------5-----------|
------1------3-----------|

NOW HERE'S THE WAY THE DAMN SONG GOES

"MAIN SONG RIFF:1"
----------------------|------------------------|
--1------1------------|------1------3----------|
--0------2------------|------2------4----------|
--2------2------------|------3------5----------|
--3------0------------|------3------5----------|
----------------------|------1------3----------|
" CHAUBANDI CHOLOOOO KALLOO SARII KYA SUHAK0

"JUST AFTER THE MAIN RIFF: A SORT OF BRIDGE"
----------------------|-------------------------|
--1------1------------|------1------3-------3---|
--0------2------------|------2------4-----------|
--2------2------------|------3------5----5------|
--3------0------------|------3------5-----------|
----------------------|------1------3-----------|

----------------------|------------------------|
--1------1------------|------1------3----------|
--0------2------------|------2------4----------|
--2------2------------|------3------5----------|
--3------0------------|------3------5----------|
----------------------|------1------3----------|
" HATIMAA RUUMAALL NIDHARMAA FUUUUUUUL"

----------------------|-------------------------|
--1------1------------|------1------3-------3---|
--0------2------------|------2------4-----------|
--2------2------------|------3------5----5------|
--3------0------------|------3------5-----------|
----------------------|------1------3-----------|

----------------------|------------------------|
--1------1------------|------1------3----------|
--0------2------------|------2------4----------|
--2------2------------|------3------5----------|
--3------0------------|------3------5----------|
----------------------|------1------3----------|
"" BHANA KATIIIIIII MILAAAKOOOO""""""""''
""""HEY""""""""""""""""

"NOW COMES THE ELECTRIC GUITARS CRUSHING IN

THE PATTERN IS LIKE THIS
( C Am F G)
("G" CHORD IS PLAYED FROM ROOT 3)
NOW HERE'S THE REST OF THE SONG.......................
OW HERE'S THE REST OF THE SONG....................... CHAMA CHAMA GARDAI MERO AAGGANI MA
KINA TIMI AAAYAEE NACHNA THALEKIIII
FUULL BARI MA FULEKO FUUUULLLLLLLLL JHAIIIIIIIIIIIIIIII
OHHHHHHHHHHHHH NACHNA KINA THALEKIIIIIIII

CHORUS:
C              Am               F                       G(P.M)
MAYAMA MAILE TIMRAI LAGIIIII TIMRAI LAGI MAILE YOOOOO JYAANAAAIII FALEKO

SIRAMAI RIBBON GALAMA
EH NAKAI MAA PHULI OHH KAAN MA JHUMKAA
KATI SUHAKI....
OHHHHHHHHHHHHHHH
NACHNA KINAAAAA THALEKII OHHHHHHHHHHH YEAHH................

NOW THE SOLO STUFFS.................................

CHORUS......




POST YOUR COMMENTS

OTHER SONGS FROM MUKTI AND REVIVAL
C Yo jeevan sajau Added on 15th Oct 2005 7233 hits
T ChaubandiCholo Added on 30th Jul 2005 23242 hits
NepaloPedia Advertise
NSC APP