FIND YOUR SONG BOOK
CLICK HERE FOR ADVANCED SEARCH

You are here » Nepali Song Chord » Robin N Looza » Chiso Chiso Hawama (Robin)

Chiso Chiso Hawama (Robin)

Band : Robin N Looza
Musician : Same
Lyricist : Not Available
Provided by ANISH KOIRALA
INTRO... (THE BASS )"RIFF:A"
E||-----------4-----------------------|-----------4--------------------4--|
B||-----2--------2-----------2--0h-2--|-----2--------2--------0h-2--------|
G||-----------------0-----------------|-----------------0-----------------|
D||--0-----0-----------0--0-----------|--0-----0-----------0--------0-----|

THIS PLAYS ON.......
THEN COMES IN THE ELECTRIC GUITAR (CLEAN)


"RIFF:1"
E||-----------0--0-----0-----------0--||
B||--0--------0--0-----0-----------0--||
G||--0--0--0--0--0-----0--------------||
D||--2--2--2--------2-----0H-2--------||
A||--2-----2--------2-----------------||
E||--0--------------0-----------0-----||


"RIFF: 2"
E||-----0-----0-----0--0----0-----0-0-----|
B||-----2-----2-----3--2----2-----2-2-----|
G||-----2-----2-----2--2----2-----2-2-----|
D||-----2-----2-----2--2----2-----2-2-----|
A||-----0-----0-----0--0----0-----0-0-----|
E||--0-----0-----0------------0-0------0--|

"RIFF: 3"
E||-----------3--3-----3--------3----||
B||-----------3--3-----3--------3----||
G||--0--0-----2--2-----2--------2----||
D||--2--2-----0--0-----0--------0----||
A||--2--2----------------------------||
E||--0--0--0--------0-----0--0-------||


"RIFF:4"
E||-------------------||
B||-------------------||
G||-------------------||
D||--7--7-------7--7--||
A||--7--7-------7--7--||
E||--5--5----0--5--5--||

"RIFF:5 :- PROGRESSION OF "A AND Asus4"



OK....NOW THE THE SONG ARRANGEMENT....


INTRO......

RIFF:1
CHISO CHISO HAWAMA

RIFF:1
YESAIII MAAN BARALINCHAAAA

RIFF:1 RIFF:2
K BHO AADI RAAATMAAAAAA

RIFF:2 RIFF:3
YO MAAAN TIMILAI NAI KHOJDACHA.....

RIFF: 3
CHISO.... CHISO.... HAWAMAAAAAAAAAAAAAA

REPEAT TWICE


RIFF:1
CHISO CHISO HAWAMA
RIFF:1
YESAIII MAAN BARALINCHAAAA


A
DEURALI KO TYO BATO (RIFF:4)
G
PAILAA TIMRAII TIRA LAMKANCHAA
A
DEURALI KO TYO BATO (RIFF:4)
G
PAILAA TIMRAII TIRA LAMKANCHAA

RIFF:5
JHYAL BATA HEREKO TIMILAI
RIFF:5
JHYA BATA HEREKO TIMILAI

RIFF:1
JAJHALKOO AAUCHAAAAAAAAA
RIFF:1 RIFF:2
K BHO AADI RAAATMAAAAAA

RIFF:2 RIFF:3
YO MAAAN TIMILAI NAI KHOJDACHA.....
THE OTHER PART GOES ON THE SAME WAY.....





POST YOUR COMMENTS

OTHER SONGS FROM ROBIN N LOOZA
T Bhool ma bhulyo Added on 14th Jan 2006 14501 hits
C Dum Maro Dum Added on 9th Jun 2005 15504 hits
T Chiso Chiso Hawama (Robin) Added on 20th Nov 2004 12336 hits
T Starry Starry night Added on 14th Aug 2004 5069 hits
NepaloPedia Advertise
NSC APP