FIND YOUR SONG BOOK
CLICK HERE FOR ADVANCED SEARCH

You are here » Nepali Song Chord » Sanjaya Shrestha » Choyera bhanchu yo mutulai

Choyera bhanchu yo mutulai

Singer : Sanjaya Shrestha
Musician : Same
Lyricist : Not Available
                    <-- Play 2 times ---------->
E|---------------|------------------------|-------------------------|
B|-5-------------|------------------------|-------------------5-----|
G|---7-6-7-6-4---|-------------4-4-4-6-4--|---4-6-7-6-4-4-6-7---7-6-|
D|-------------7-|-7-7---4-7-------------7|-7-----------------------|
A|---------------|-----7-----7------------|-------------------------|
E|---------------|------------------------|-------------------------|


A                     Bm   A                   Bm
Choyera banchu yo mutulai   suna timi juni junilai
     D         E            A
Mata timrai ho timrai bhaisaken
A                  Bm  A                  Bm
Bihani ko ujyalo jhain  timro hansilo roopama
      D        E           A
Ma ta pagal ho pagal bhaisaken

  <- Play 2 times ->
E|---------------|-------------------------------------|
B|-----5---------|-------------------------5-----------|
G|---4---4-4-----|-----4-6-4---4---4-----4---4-4-------|
D|-7---------7-7-|-7-7-------7---7-----7----------7-7--|
A|---------------|-------------------------------------|
E|---------------|-------------------------------------|


A
Jeevan jiune aashama hindi rahe behosima
Bm                           Bm        A
Dekhen ani jaba timilai mero paaila adidiyo
A                     Bm  A                  Bm
Aba kunai chaina chahana   Timi basisakyo manama


A
Lajaalu timra ti oontha le mero katai naam lincha ki
Bm                                E             A
Chanchale timra ti aankhale merai sapana dekcha ki
A                  Bm   A                     Bm
Uni deu merai bhawana    baandhi malai angaaloma




POST YOUR COMMENTS

OTHER SONGS FROM SANJAYA SHRESTHA
C Euta gaun thiyo Added on 17th Aug 2013 5352 hits
C timi bina sansar birano Added on 29th May 2011 2056 hits
C Tyo mutulai choyera Added on 9th Aug 2008 13730 hits
C Tada Najai deu timi Added on 17th Jun 2006 7036 hits
C Maya Meri Maya Added on 15th Feb 2006 16461 hits
T Choyera bhanchu yo mutulai Added on 3rd Feb 2003 3153 hits
C Jaau timi jaau Added on 3rd Feb 2003 3098 hits
T Chadi jaane mayaluko Added on 3rd Feb 2003 3206 hits
T Tada bhayera k huncha Added on 3rd Feb 2003 2845 hits
T Manale khai kasalai Added on 3rd Feb 2003 2540 hits
NepaloPedia Advertise
NSC APP