FIND YOUR SONG BOOK
CLICK HERE FOR ADVANCED SEARCH

You are here » Nepali Song Chord » Sanjeev Singh » Chulesima

Chulesima

Singer : Sanjeev Singh
Musician : Same
Lyricist : Not Available
TAB Provided by AdY
e|----12-12-12-10-9-7/97-10-12-10-9-7/97-----
b|--9------------------------------------------
g|---------------------------------------------
d|---------------------------------------------
a|---------------------------------------------
e|---------------------------------------------

e|----12-12-12-12/14-10-9-7----7-7-7-5-4-2---2-4-5-7-9-10-12-12/14-12-12---
b|--9-----------------------10-------------5-------------------------------
g|-------------------------------------------------------------------------
d|-------------------------------------------------------------------------
a|-------------------------------------------------------------------------
e|-------------------------------------------------------------------------

e|-10-9-7/97-5-4--
b|-----------------
g|-----------------
d|-----------------
a|-----------------
e|-----------------
G          C                         Am
Kina royou   bhana timi manko banesi ma
G            C                          Am
Kina rakhyou   chokho mutu tikho chulesima
      G                  G#     G
La la la la     La la la la a a a


G            C         F             G
Kasto Chot paryo bhana kasto manma paryo
G             C           F             G
Timra nischal aakha bitra kasko betha saryo
G           C                      Am
Kina bagyou  aaja timi banko kulesima

G           C              F             G
Kati ghumti aaphnai lagtyo Kati timrai jasto
G            C              F            G
Kati trishna timrai lagthyo kati merai jasto
G            C                       Am
Kina bhagyou  tada tada eklai behosi ma




POST YOUR COMMENTS

OTHER SONGS FROM SANJEEV SINGH
C Killa Hajarau Added on 7th May 2007 3475 hits
C Sarara Udayo Added on 2nd Jun 2005 3507 hits
C Chulesima Added on 22nd May 2003 17432 hits
NepaloPedia Advertise
NSC APP