FIND YOUR SONG BOOK
CLICK HERE FOR ADVANCED SEARCH

You are here » Nepali Song Chord » Melodies » DeusiRe

DeusiRe

Singer : Melodies
Musician : Same
Lyricist : Not Available
   a hai bhan bha na bhai ho deu si re a hai ram ra ri bhana deu si re
E|--------------------------------------------------------------------------------|
B|----3---2--------2--------------------------------------------------------------|
G|-4-----------4-------2---4---------------4----2---------------------------------|
D|-----------------------------5--5--5--5----------5--4-2h4-2--2---2--2-----------|
A|--------------------------------------------------------------------------------|
E|--------------------------------------------------------------------------------|
   a hai sor mi lai ka na deu si re e ram ra ri bha na ..................
A|--------------------------------------------------------------------------------|
B|-------------------------------------3---2-----2--------------------------------|
G|----2---------------------------------------4-----2---4-------------------------|
D|-2------5--4---2--2---5--5--5--5------------------------------------------------|
A|--------------------------------------------------------------------------------|
E|--------------------------------------------------------------------------------|




POST YOUR COMMENTS

OTHER SONGS FROM MELODIES
T Chati ma mero yo choto bhoto Added on 23rd Aug 2011 8421 hits
T Simsime pani ma Added on 23rd Apr 2011 6993 hits
T DeusiRe Added on 12th Aug 2005 12117 hits
T Rajamati kumati Added on 2nd Sep 2003 7752 hits
T Resam firiri Added on 20th Jan 2003 15454 hits
T MalShree dhun Added on 15th Jan 2003 10931 hits
NepaloPedia Advertise
NSC APP