FIND YOUR SONG BOOK
CLICK HERE FOR ADVANCED SEARCH

You are here » Nepali Song Chord » Axe Band » Euta Chittiko sahara le

Euta Chittiko sahara le

Band : Axe Band
Musician : Same
Lyricist : Same
Provided by Mr. Ashish Rajak
Start song with Drums. At the 4th drum beat, lead and bass goes hand to hand

Tune: Standard EBGDAE string
H:- Harmonics
{ Touch and strike the string exactly at bar i.e. lower fret separator }
clean note possible after few practices
Lead

          H H H          H H H          H  H    H      H  H  H         H   H   H
e|-----------12--------------------------------------------------------------12---|
B|---------12------------------------------------------------------------12-------|
G|------12-----------------7-------------------------------7----------12----------|
D|------------------------7-------------------5----------7------------------------|
A|---------------------7--------------7---7----------7----------------------------|
E|------------------------------------7-------------------------------------------|

Bass
E|-----------------------------------------------------------------------------|
E|-----------------------------------------------------------------------------|
E|---------------------7-7-x----------7--7---x------5--5--x---------5---5---x--|
E|-----------------------------------------------------------------------------|

Lead at starting of each ie
Yeuta chitthi ko

         H H H
e|-----------12--|
B|---------12----|
G|------12-------|
D|---------------|
A|---------------|
E|---------------|

{Rythum Riff played by Lead guitar }


At : Maya
e|----x--xx-----7---xx-----7---xx -|
B|----x--xx-----8--xx------8---xx -|
G|----x--xx-----9---xx-----9---xx -|
D|----x--xx-----9---xx-----9---xx -|
A|------------------------------------|
E|------------------------------------|

e|---7x---xx-xx------7x---xx-xx -----7x---xx -|
B|---8x---xx-xx------8x---xx-xx -----8x---xx -|
G|---9x---xx-xx -----9x---xx-xx -----9x---xx -|
D|---9x---xx-xx -----9x---xx-xx -----9x---xx -|
A|--------------------------------------------|
E|--------------------------------------------|

e|---10x----xx-xx ----10x----xx-xx -----10x----xx--|
B|---10x----xx-xx ----10x----xx-xx -----10x----xx--|
G|---11x----xx-xx ----11x----xx-xx -----11x----xx--|
D|---12x----xx-xx ----12x----xx-xx -----12x----xx--|
A|---12x----xx-xx ----12x----xx-xx -----12x----xx--|
E|---10x----xx-xx ----10x----xx-xx -----10x----xx--|

Yeuta chitthi ko sahara le timro mann jittna chahann-na ma ----2
Maya kagaz ma hunn-na ni Yo dui aatma ko meela ho ---2


D chord solo beat
Tesai le timilaiiiiiii........

Rhythm

   Em
e|---7-----------------|
B|---8-----------------|
G|---9----------6h7p6--|
D|---9 ----------------|
A|---------------------|
E|---------------------|

Yeuta chitthi ko sahara le timro mann jittna chahann-na maaaaaaaa

Yo maya bhanne sansar mai Kebal yeak choti matrai huncha
Kebal yeak choti matrai huncha

Aru sanga jivan bitaunu Yo ta samjhauta matrai huncha
Yo ta samjhauta matrai huncha

Kagaj ma lekhi maya laiedai-na, Vagye ko lekha matra payeen
Dekhera payeendai-na
Tesai le timiiilaiiiiiiiiiii

Yeuta chitthi ko sahara le timro mann jittna chahann-na ma

Kahile kahi maya basna yekai najar nai kafi huncha
yekai najar nai kafi huncha
Rojhi roji maya launu testo lai swarthy maya bhanin-ca
Testo lai swarthy maya bhanin-ca

Magera maya kahile payeendai-na Mann mili matra maya layeencha
Chan-ra layeendai na
Tesai le timiiilaiiiiiiiiiii















































































































































































POST YOUR COMMENTS

OTHER SONGS FROM AXE BAND
T Euta Chittiko sahara le Added on 16th Sep 2007 24932 hits
T Lukna deu malai Added on 7th May 2005 26003 hits
C Praya sadhain ma Added on 4th Oct 2004 20778 hits
C Chiya baarima Added on 4th Oct 2004 32273 hits
NepaloPedia Advertise
NSC APP