FIND YOUR SONG BOOK
CLICK HERE FOR ADVANCED SEARCH

You are here » Nepali Song Chord » Narayan Gopal » Euta Mancheko Mayale Kati

Euta Mancheko Mayale Kati

Singer : Narayan Gopal
Musician : Same
Lyricist : Not Available
E|-----------------------------------------------------------------------------------|
B|-1-3-1-3-1-3-1---------------------------------------------------------------------|
G|---------------2-0-----------3-0--------------2-5-5h7p5--------------------3-2-----|
D|-------------------3-5-3-5-3-----3-0------3-5-----------7-5-7--5h7p5-3---5-----5-3-|
A|--------------------------------------3-5------------------------------5-----------|
E|-----------------------------------------------------------------------------------|

E|-5h6p5-------6-5-------8s10-8---------|
B|-------8---8-----8-6----------10-8----|
G|---------7-------------------------10-|
D|--------------------------------------|
A|--------------------------------------|
E|--------------------------------------|


F                      Gm             Bb         F
Euta mancheko mayale kati pharak pardacha jindagima
F                       Gm             Bb        F
Euta saathiko saathale kati pharak pardacha jiunuma


F        Dm            F
Sisir yamako jaadoma pani
           Bb  C7       F
Fuldacha phool   muskanako
F                    Bb
Andhyaro aunsiko raatama pani
          C7      F
Baldacha diyo bisawasko
F         Bb    A7           F
Nayana bharikoooo    aansoma pani
F          Gm  C7       F
Baseko huncha    tasbir tyo
F                        Gm
Hridaya bhariko chotama pani
          Bb         F
Lukeko huncha samjhana tyo


F          Dm           F
Bichod hundako dukhama pani
F          Bb  C7      F
Bharosa huncha    milanako
F                 Bb    
Jhagada hundako bela ma pani
            C7         F
Patyara huncha sahara ko
F        Bb   A7           F
Mayalu binako    hundo ho kati
        Gm    C7        F 
Urath lagdoooo   sansar yo
F                      Gm
Pirati binako hundo ho kati
         Bb          F
Nirash eklo samjhano yo




POST YOUR COMMENTS

OTHER SONGS FROM NARAYAN GOPAL
C Mohani Laagla Hai Added on 25th Jun 2012 12597 hits
C Aja bholi harek saanjh Added on 6th Jun 2011 7829 hits
C Ankha chopi narou bhani Added on 10th Apr 2007 14170 hits
T Malai Nasodha Kahan Dukcha Added on 17th Jan 2003 29484 hits
T Euta Mancheko Mayale Kati Added on 17th Jan 2003 23706 hits
T Kehi Mitho Bata Gara Added on 17th Jan 2003 38462 hits
T Yeti Dherai Maya Diyi Added on 17th Jan 2003 19847 hits
C Malai Maph gari deu Added on 17th Jan 2003 19869 hits
NepaloPedia Advertise
NSC APP