FIND YOUR SONG BOOK
CLICK HERE FOR ADVANCED SEARCH

You are here » Nepali Song Chord » Samrit Lwagun » Gairi Rocks

Gairi Rocks

Singer : Samrit Lwagun
Musician :
Lyricist :
   
Song Provided By : Samrit Lwagun


[Code]
(/) Slide Up  (\) Slide Down  (h) Hammer On  (p) Pull Off  (b) Bend (r) Release (v) Vibrato

First Intro ( This Intro is my Own Composed for this Song )
E|-----------------5--9--------------------7---------------
B|--------------5-----------------9--9h10--------------7---
G|-----------6-----------------9--------------------7------
D|--------7-----------------9--------------------7---------
A|-----7-----------------7--------------------5------------
E|--5------------------------------------------------------

 

E|-7h9p7-----7h9p7-----7h9p7-----
A|--------7---------7---------7--
D|-------------------------------
G|-------------------------------
B|-------------------------------
E|-------------------------------


E|-----------5---9---------------10/12-----------5-----5---------------
B|---------5-----------9-9h10---------------7-----7----------------9---
G|-------6-----------9----------------------7--------7------------9----
D|-----7-----------9----------------------7-----------7---------9------
A|---7-----------7----------------------5---------------------7--------
E|-5-------------------------------------------------------------------

 

E|--7-------------------------7--9--
A|---9------9h10p9------------------
D|-------9--------------9-----------
G|-------------------------9--------
B|----------------------------------
E|----------------------------------


E|-7p5-----7p5-----9p5----7p5-----7p5--9p5-------
B|-------5-------5---------5-------5-------------
G|-----------------------------------------------
D|-----------------------------------------------
A|-----------------------------------------------
E|-----------------------------------------------

 

E|-7p5----7p5-----7p5-7p5-----7p5---7p5—5(v)------
A|--------------5------5--------------5-------5---
D|------------------------------------------------
G|------------------------------------------------
B|------------------------------------------------
E|------------------------------------------------

 

 

Second Intro (This is the original Intro of Gairi khet ko song )
E|-5----------9--5----5--------5--9-5----------------
B|-5-------------------5-----------------9--7--------
G|----6-------------------6--------------------------
D|--------7------------------7-----------------------
A|--------7------------------7--------------------5--
E|-5-------------------5-----------------------------


E|-----5---------------------5------------
A|--7-----7---------7-----7-----7--5------
D|---7---------------7-----------------7--
G|---7---------------7--------------------
B|--------------5-------------------------
E|----------------------------------------

 

Second Intro (This is the original Intro of Gairi khet ko song )
E|---------------7--------------------7-----------------------
B|------9----9----9----------9---9-----9--7-------------7-----
G|------9---------------------9---------------9-----------7---
D|------9---------------------9---------------------------7---
A|--7------------------7-----------------------------5--------
E|------------------------------------------------------------

 

E|-5--9--7--5----5--9--7--5--7--5---5--
A|------------------------------------
D|------------------------------------
G|------------------------------------
B|------------------------------------
E|------------------------------------

 


Repeat the above as Drum starts
Remember only the ending is different from above here it is with (Sarangi Part which is my Favorite)

E|---Ending part ---5--9--7--5--5--9-9--7---5----
B|-----------------------------------------------
G|-----------------------------------------------
D|-----------------------------------------------
A|-----------------------------------------------
E|-----------------------------------------------

 

E|-(SARANGI)---4\5----5-----RepeatX4-
A|-----------------------------------
D|-------------------------2---------
G|-----------------------------------
B|-----------------------------------
E|-----------------------------------

 

Solo Starts
    First Gairi khet ko Serai hanyo
E|----------------------------------------------------\14-------------
B|------------------------10-10h12-12\14-12-14-----14-12-12-12p10-----
G|-9h11-11-11p9-9h11--------------------------------------------------
D|--------------------------------------------------------------------
A|--------------------------------------------------------------------
E|--------------------------------------------------------------------


E|--------------------------------\14-
A|---10-12b-12-10-----14/12-10-12b----
D|-11-11------------------------------
G|------------------------------------
B|------------------------------------
E|------------------------------------


    Second Gairi khet ko serai hanyo
E|-----------------------------------------------------------
B|-----------------------------10--10h12--12\14--12--14fullb-
G|-9h11--11--11p9--9h11--------------------------------------
D|-----------------------------------------------------------
A|-----------------------------------------------------------
E|-----------------------------------------------------------

 

E|-------------------------------------------------
A|-14--14b--14b--14--2--12--12p10------------------
D|------------------------------------------11-11--
G|-------------------------------------------------
B|-------------------------------------------------
E|-------------------------------------------------

 

E|-----------------------------------------
B|--10--12b--12--10--12b--12b--10----------
G|-----------------------------------------
D|-----------------------------------------
A|-----------------------------------------
E|-----------------------------------------

 

.**First  Nauni Jasto  Mero Mana
E|---\10--10p9------------------12--10--9---
A|---------12b-12--12----------------12-----
D|------------------------------------------
G|------------------------------------------
B|------------------------------------------
E|------------------------------------------

 

  Second Nauni Jasto Mero mana                                   

E|---\10—10p9--------12-------------12----10---9---
B|-----------------12b------12r----12--------------
G|-------------------------------------------------
D|-------------------------------------------------
A|-------------------------------------------------
E|-------------------------------------------------

 

Chirai Paryo
E|------\12--12---12p9----9/12---
A|---12--------------------------
D|-------------------------------
G|-------------------------------
B|-------------------------------
E|-------------------------------


   Shred this First then Sweep Picking Below
E|-12--10--9-------------------------------------------------
B|--------------12--10--9--10--9--7--------------------------
G|----------------------------------------9--7--6--9--7--6---
D|-----------------------------------------------------------
A|-----------------------------------------------------------
E|-----------------------------------------------------------

 

E|---------------------------------
A|---------------------------------
D|---------------------------------
G|-----9--7--6--9--7--6------------
B|---------------------------9-7-5-
E|---------------------------------


This particular Sweep pick I have made it bit difficult there is Slide down ,Slid e up ,Pull off  Finger    roll and String Skipping from A string 11 to B string 10 as you can see the tabs... try it if u can if u cant then just fill up what makes it sound similar then i think it will be fine.

E|-----------------9--12/10p7-------------------
B|-------------10--------------9------------10--
G|----------9---------------------9-------------
D|------11---------------------------9----------
A|--\12----------------------------------11------
E|----------------------------------------------

 

Usko Roopk Ko Karautile……………….
E|-------------------9--7\9------------------
B|---------10--12------------10\12-----------
G|--9--11---------------------------11--11---
D|-------------------------------------------
A|-------------------------------------------
E|-------------------------------------------


E|-10h12p10---------------------------------------10--7\9-----
A|-------------10h12p10---------------10--12-----------10\12--
D|---------------------------11---9--11-----------------------
G|------------------------------------------------------------
B|------------------------------------------------------------
E|------------------------------------------------------------

 

 .....……………………………..Repeat the Above again and  this is the ending for Second time
E|---------- \12-----------------------------------------------------
B|------10--------14/12--10--12b-----Ending Part----12b10--12b12b10--
G|--\11--------------------------------------------------------------
D|-------------------------------------------------------------------
A|-------------------------------------------------------------------
E|-------------------------------------------------------------------


E|----------2--4--5----------4--5--7---------5--7--9---------
B-2--3--5----------3--5--7---------5--7--9---------7--9--10--
G|-----------------------------------------------------------
D|-----------------------------------------------------------
A|-----------------------------------------------------------
E|-----------------------------------------------------------

 

E|-7--9--10-----------9--10--12-------------10--12—14-
A|-------9--10--12------------10--12--14--------------
D|----------------------------------------------------
G|----------------------------------------------------
B|----------------------------------------------------
E|----------------------------------------------------

 

E|--12--14--17--12--14--12--14--17--12--14--12--17--14--12--
B|----------------------------------------------------------
G|----------------------------------------------------------
D|----------------------------------------------------------
A|----------------------------------------------------------
E|----------------------------------------------------------


E|----------------------------
A|-14--12v--10----------------
D|----------------------------
G|-----------------------9--7-
B|----------------7--9--------
E|----------------------------

 

E|----------------------------------------
B|----------------------------------------
G|---------11--9--------------6-----6--8--
D|--9--11---------------7--9-----9--------
A|----------------7--9--------------------
E|----------------------------------------

 

Marsyangdima Jaalai Hanyo

E|-11--11--11--14--------------------------------------------------------
B|-----------------14--14--14--12h14--10--10--14--12h14--12--10--12b--10-
G|-----------------------------------------------------------------------
D|-----------------------------------------------------------------------
A|-----------------------------------------------------------------------
E|-----------------------------------------------------------------------


Bihanima Dekhe Uslai Mata Lagyo Sannjha
E|-----------------------------------------10--10--9-------------
B|--12--12--12--14--------------12\14--12-------------12--12b10v-
G|------------------11--11--14-----------------------------------
D|---------------------------------------------------------------
A|---------------------------------------------------------------
E|---------------------------------------------------------------

 

** Repeat Nauni Jasto shred and Sweep picking and Usko roop ko here ..but remeber this time there is no repeat it straightly goes to second bridge here it is below..


Repeat this Twice and the second time the  Last Note is Different find out what it is : )
E|--------------------------------------------------------------
B|-------------------------------------10--10--10---------------
G|--9--9--11--11--11--9--11--11---------------11--11--11--------
D|--------------------------------------------------------------
A|--------------------------------------------------------------
E|--------------------------------------------------------------

 

E|----------------9------------------------------
A|-10--12-----10h12--10--10--12—10h12------------
D|--------------------------------------------11-
G|-----------------------------------------------
B|-----------------------------------------------
E|-----------------------------------------------

 

Repeat this Twice as well and the second time the Last Note is Different find out what it is : ))
E|--\14--9--------------------------------------------------
B|-----------14--12--10--12\14--14--------------10--12------
G|----------------------------------------11--11------------
D|----------------------------------------------------------
A|----------------------------------------------------------
E|----------------------------------------------------------

 

E|-----9---------------------------------------
A|-10h12--10--10--12--10--12-------------------
D|------------------------------------------11-
G|---------------------------------------------
B|---------------------------------------------
E|---------------------------------------------

 

Khola Pari Tari DineTuhinako Phanko
E|--------9--12--12/14--14--14--14--12--9--9--12--12h14--9--9\14--12--
B|-10-12--------------------------------------------------------------
G|--------------------------------------------------------------------
D|--------------------------------------------------------------------
A|--------------------------------------------------------------------
E|--------------------------------------------------------------------

 

   Here is the  Tapping this is also bit difficult listen to the video carefully and play it .
E|-T17p12h14----T17T17p14p12-------T17p14p12----Repeat Twice-
B|----------------------------------------------------------
G|----------------------------------------------------------
D|----------------------------------------------------------
A|----------------------------------------------------------
E|----------------------------------------------------------

 

Khola Pari Tari Dine Tuhinako Phanko
E|--------------9--12--12/14--14--14--14--12-
B|--10--12-----------------------------------
G|-------------------------------------------
D|-------------------------------------------
A|-------------------------------------------
E|-------------------------------------------


E|-9--9--12--12\14--12--14b--12v-
A|-------------------------------
D|-------------------------------
G|-------------------------------
B|-------------------------------
E|-------------------------------

 

Pahilo Maya Chutai HalyoKalejima Ranko
 Repeat this Twice as well only dubble bend in the Second time.
E|-12--14--12v-----9--12--9v--------------------------------------
B|--------------14------------12--10-10-14--12h14--12--10--12b10--
G|----------------------------------------------------------------
D|----------------------------------------------------------------
A|----------------------------------------------------------------
E|----------------------------------------------------------------


Repeat again  Gairi Khet ko Serai Hanyo for the Last time then the Solo Finishes.

And Play the First Intro Again in Distortion

Here is the Last Part where am play this with my hand Upside down…
E|-------------------------------------------------
B|-------------------------------------------------
G|-----------------------------------------------6-
D|-----------------------------6--7--9--6--7--9----
A|-----------5--7--9--5--7--9----------------------
E|--5--7--9----------------------------------------

 

E|--------------------------------------------
A|--------------------------------------------
D|-7--9------------7--9--11---------9--11--12-
G|-------7--9--11------------9—11--12---------
B|--------------------------------------------
E|--------------------------------------------

 





POST YOUR COMMENTS

Video of the Song

OTHER SONGS FROM SAMRIT LWAGUN
T PSYCHO MAKURA 2 – MAKURA KO BADLAA Added on 24th Jul 2016 1205 hits
T Pehla Nasha Rocks Added on 12th Sep 2014 12457 hits
T PSYCHO MAKURA GUITAR TABS Added on 26th Jul 2014 2230 hits
T LOVE OF ARPEGGIOS Added on 28th Jan 2013 1377 hits
C Sundar Sansar Added on 29th Sep 2012 1737 hits
T Gairi Rocks Added on 20th Apr 2012 2479 hits
NepaloPedia Advertise
NSC APP