FIND YOUR SONG BOOK
CLICK HERE FOR ADVANCED SEARCH

You are here » Nepali Song Chord » Om Bikram Bista » Garo paryo launa jiuna

Garo paryo launa jiuna

Singer : Om Bikram Bista
Musician : Same
Lyricist : Not Available
E|----------------------------------------|
B|----------------------------------------|
G|------------------5p4-5-5s7-9-10-10s12--|
D|----0---------5s7-----------------------|
A|-0h3--2-3-3h5---------------------------|
E|----------------------------------------|


C                      Am  
Garo paryo launa jiuna   Kasari bachen aaja samma
Bb         C          Dm  C
  Yo jindagani birano cha ha
C                      Am
Bhok pyaas dara chinta   kasailai chain hola malai bhanda
Bb       C             Dm  C
  Chaaraitira andhyaro cha ha

E|-----------------------------------------------------------------------------------------|
B|------------------------------------------------------------s6-6-6-6p5-3p1-3p1-----------|
G|-----------------0-5-p7-5-7-9-p7-5-10-10-10-10-10-9-7-7-5-5--------------------5-2-------|
D|-----0-------0-2-------------------------------------------------------------------2-0---|
A|-0-3---2-3-3---------------------------------------------------------------------------3-|
E|-----------------------------------------------------------------------------------------|


C                         Bb                C
Dui chyan ko byatha hoina   yesle dhardhari ruwaaunecha
C                       Bb           C
Gaaun khane katha hoina  yesla joogi banaunecha
Am                    Bb
  Sustari baato hidnu   Samayalai saatha dinu
Bb         C              Dm  C
Aaphule janeko kura yatti cha ha
C                    Am   
Jeevanma kohi chaina   aaphantale malai patyaundaina
Bb     C           Dm  C
  Jindagani birano cha ha

Play as above
Aaanshi khasera moti bancha moti kasyoki jindagi
Nana thari kehi sochnu chaina j cha tesaima santoshi
Aakasha ka tara gannu anabasyak tolaunu
Jhasekera hidne bani mero cha





POST YOUR COMMENTS

OTHER SONGS FROM OM BIKRAM BISTA
T Garo paryo launa jiuna Added on 3rd Feb 2003 3208 hits
C Mero rahar biunjhiyera Added on 28th Jan 2003 3692 hits
C Yaad gara ti din haru Added on 28th Jan 2003 5274 hits
T Ma Mauntama Aljhiraheko Added on 24th Jan 2003 30626 hits
C Mero yaad ajhai aauncha bhane Added on 24th Jan 2003 9381 hits
NepaloPedia Advertise
NSC APP