FIND YOUR SONG BOOK
CLICK HERE FOR ADVANCED SEARCH

You are here » Nepali Song Chord » Nepathya » Goreto gaunko duldai

Goreto gaunko duldai

Band : Nepathya
Musician :
Lyricist :
Album : Min Pachash ma
   
Song Provided By : Someone who like to call him/herself as UNKNOWN

intro plucking [A Bm G A]


   A              G
He He la la la la la
   G           A
He He la la la la
Bm             A
Lalala lalala la la la
Bm            A
Lalala lalala la la la


A                       Bm    G
Goreto gaunko duldai ma hinda
G                   Bm
Bhetin euti sundari
Bm           A
Ko ho Ko ho? Mohani laaune muhar ki


Bm             A
Lalala lalala la la la
Bm            A
Lalala lalala la la la

E-----------------------------4----4-----------
B--------------------5----5-----6----6---4-----
G--4--6--4-----4--6-----6-------------------6--
D-----------7----------------------------------
A----------------------------------------------
E----------------------------------------------

 

E------------------------------------------------7--9/10--9--7-----
B-----------------------7--7--9--7-----7--9--10--------------------
G--6--7--6----6--7---9--------------9------------------------------
D-----------9------------------------------------------------------
A------------------------------------------------------------------
E------------------------------------------------------------------

 

E------------------------------------------------12--14/16--14--12--
B-----------------------7--7--9--7-----7--9--10---------------------
G--6--7--6----6--7---9--------------9-------------------------------
D-----------9-------------------------------------------------------
A-------------------------------------------------------------------
E-------------------------------------------------------------------

 

[AAA GGF#m AAA GGGA]


 


A            G           F#m      A
Maya timilai chaubandile kati suhayeki
A         G       F#m          A   
Jhumke ra buakile jhanai ramri dekheki
A           Bm      
Pachyaurile muhar chopda
A
Maryo ni maya le maryo
A
La Ha maryo ni maya le maryo
Bm             A
Lalala lalala la la la
Bm            A
Lalala lalala la la la


first part: play high E string at 5th fret second part:
E-12--12--14----12--12--14--17--17--14--17--12---------------
B------------14---------------------------------14---12--14--
G------------------------------------------------------------
D------------------------------------------------------------
A------------------------------------------------------------
E------------------------------------------------------------


E-12--12--12--14-----12-------------------
B------------------14----12--12--10----10-
G----------------------------------11-----
D-----------------------------------------
A-----------------------------------------
E-----------------------------------------
AAAG GGGA AAAG G A -----------------------


Barule kammarma gagri bhari pani
Maya laaune rahar bhako thito hami pani
Laune bhaye laideu maya
Aljhai kina ho rakhchyau
La hai aljhai kina ho rakhchyau
Lalala lalala la la la
Lalala lalala la la la





POST YOUR COMMENTS

OTHER SONGS FROM NEPATHYA
T Goreto gaunko duldai Added on 8th Jun 2011 5038 hits
C Binti cha mero Added on 10th May 2011 9419 hits
C Gandaki ko tiraima Added on 29th Apr 2011 12768 hits
C Yo Jindagani Added on 23rd Apr 2011 28966 hits
C Rangeen Chara Added on 10th Feb 2008 19366 hits
C Timro Aagaman Added on 27th Aug 2006 6292 hits
C Ghar ko kura Added on 11th Jul 2006 4475 hits
T Jomsom Bazaarma Added on 26th Feb 2006 25869 hits
C Chekyo Chekyo Added on 18th May 2005 24598 hits
T Chari maryo sisao ko goli le Added on 23rd Apr 2005 33742 hits
T Aaganai bhari Added on 25th Feb 2003 29201 hits
T Godhuli saanjhama Added on 24th Feb 2003 12159 hits
NepaloPedia Advertise
NSC APP