FIND YOUR SONG BOOK
CLICK HERE FOR ADVANCED SEARCH

You are here » Nepali Song Chord » Aruna Lama » Hera na hera kaancha

Hera na hera kaancha

Singer : Aruna Lama
Musician : Same
Lyricist : Not Available
E|-------------------------------------------------------------------------------------------|
B|-----7p5---7p5----------------5-----5----------------3p2---3p2-----------------------------|
G|---7-----7-----7-6-4--------6---7-6---7-6-4--------4-----4-----4-2------2--4h5---2h4-2h4-2-|
D|-7------------------------7-----------------7----5-----------------5--4--------------------|
A|-------------------------------------------------------------------------------------------|
E|-------------------------------------------------------------------------------------------|

E|-------------------------------------------------------------------------------------------|
B|---3-2---------2-----------------------------------2-3-------------------------------------|
G|-2-----4---------4-2---2-4---2-----------------2-4-----------------------------------------|
D|-------------5-------------5---4-5-2-4---2-4-5---------------------------------------------|
A|----------------------------------------5--------------------------------------------------|
E|-------------------------------------------------------------------------------------------|

D                      A    
Hera na hera kaancha dandalai phool le dhakyo
G                   C                      D
Tipa na tipera euta chulto ma gaansi deuna
D                         A
Huncha lau huncha kaanchi tyo phool ma tipi lyaaunla
G                         C                     D
Phooleko phool jhain tara ek palta haansi deuna

D                                  Bm
Sumpi hridaya timilai hirdaya mero natoda
G                         D
Jeevan ko baato cha laamo eklai bichama nachoda
D                                         Bm
Aakash dharti saachi cha hridaya ko maaya timrai ho
G                       D
Yo jeeban maatrai hoina arko jeevan pani timrai

D                                     Bm
Jovan haamro ek baaji phooleko samjha mayama
G                    D
Hridaya ko maya mero ek baaji sumpeko samjhana
D                                       Bm
Sumpeko timro tyo maya bhulaaune chaina aajanma
G                            D
Samjhana rakhenu chu sadhain bandheko baacha mayama




POST YOUR COMMENTS

OTHER SONGS FROM ARUNA LAMA
C Udi Jaun Bhane Added on 19th Oct 2011 3485 hits
C E kancha malai sunko tara Added on 18th Oct 2011 10390 hits
C Eklai Basda Added on 8th Apr 2005 8542 hits
T Hera na hera kaancha Added on 8th Apr 2005 11071 hits
NepaloPedia Advertise
NSC APP