FIND YOUR SONG BOOK
CLICK HERE FOR ADVANCED SEARCH

You are here » Nepali Song Chord » 1974 A.D. » Hidda Hiddai

Hidda Hiddai

Band : 1974 A.D.
Musician : Same
Lyricist : Not Available
Provided by: ADY
For more detail chord go to official website of 1974 AD

D|Bm|D|A =Keyboard
1st Solo's chord:Em G|D G|Bm G|A|Em A|D|
E|------------------------------------------10-----|
B|-----------------------------10-10~-10h12--------|
G|-----7---9/11-9~-7---7-9h11----------------------|
D|-7h9---9-----------9-------------------------12--|
A|-------------------------------------------------|
E|-------------------------------------------------|

E|---------------------------------7----7-10-7-10-12-10-12-12/14-12~-10----10h12~-|
B|-------------------7---7-10-7-10---10---------------------------------12--------|
G|-------7---7-9-7-9---9----------------------------------------------------------|
D|-9-7-9---9----------------------------------------------------------------------|
A|--------------------------------------------------------------------------------|
E|--------------------------------------------------------------------------------|

E|-12-14-15-15/17-15-14h15p14-12--10----10h12-10-------10-------------------|
B|-12--------------------------------12----------10h12----12p10-------------|
G|-12-----------------------------------------------------------11-9-11-----|
D|----------------------------------------------------------------------12--|
A|--------------------------------------------------------------------------|
E|--------------------------------------------------------------------------|


D                 F#m
Hinda hindai, dobatoma
D7                   G
Timi ta kaha harai diyau
   Em               A
Ma bhane chai, almalera
     A7                D
Timilai tyahi parkhi rahe 2

G       A      G            D
Timile malai, sodhha pani sodhenau
A                          D
Timle malai kahile pani khojenau 2

Em       F#      Bm
Aba ta aas pani mari sakyo
Em          F#        Bm
Rahar haru mutu bata hati sakyo 2

G                         A
Kina ho kina, yastai nai bho





POST YOUR COMMENTS

OTHER SONGS FROM 1974 A.D.
C Mayalu le Added on 17th Feb 2008 48927 hits
C Mildaina Kathaharu Added on 28th Jul 2007 13465 hits
C Tyo raatko Added on 14th Jan 2006 18772 hits
C Eklo chhu Added on 15th Oct 2005 14369 hits
T NepaliFullTab Added on 8th Oct 2005 16393 hits
T Hidda Hiddai Added on 8th Oct 2005 71824 hits
T PINJADA KO SUGA Added on 8th Oct 2005 20855 hits
C Gurasai fulyo Added on 28th Aug 2005 50102 hits
T Nepali Added on 30th Jul 2005 33672 hits
C Kahile Kahile Added on 18th Jul 2005 19910 hits
C Chaubandi Choli Added on 29th Nov 2004 33168 hits
T Mutu Bhari Bhari Added on 20th Nov 2004 34423 hits
T Sambodhan timilai gardaichu Added on 11th Aug 2004 48010 hits
C Timilai Piratile bandhula Added on 13th Feb 2003 26523 hits
T (1974 AD)Deurali Bhanjyang Added on 13th Feb 2003 16464 hits
C Chundaina Timro Mayale Added on 28th Jan 2003 48652 hits
T Parelima lukai rakhana Added on 15th Jan 2003 69437 hits
T Dherai dherai aauncha manama Added on 15th Jan 2003 62944 hits
NepaloPedia Advertise
NSC APP