FIND YOUR SONG BOOK
CLICK HERE FOR ADVANCED SEARCH

You are here » Nepali Song Chord » Shadows » Hidne manche ladchha

Hidne manche ladchha

Band : Shadows
Musician : Same
Lyricist : Not Available
Provided and Tab worked by : Sanjay Shahi
Alternative chord style provided by: Srijan Koirala
1st guitar
E|--------------------------------|-------------------------------|
B|----8-------8--------8----------|---8---------------------------|
G|------7-------7---------7-------|-------7-----------------------|
D|--9-----------------------------|-7-----------------------------|
A|---------10---------------------|-------------------------------|
E|-----------------10-------------|-------------------------------|

2nd guitar
E|--------------------------------|-------------------------------|
B|----3-------3------3-------3----|-------------------------------|
G|------0--------0-----0--2----0--|-------------------------------|
D|-----------------0--------------|-------------------------------|
A|-2------------------------------|-------------------------------|
E|---------3----------------------|-------------------------------|

Sing with plugging
Bighna badha aaiparcha
duniya le dhikar cha
bichalit na hoono hai
je parcha tyo darcha-2
at second time

              F#
je parcha tyo tarcha
Bm     g      D     F#
Hidne manche ladcha

Mehinet garyo bhane
Janata pani tarincha
jati je khal khada
prakash ta charincha-2

             F#
prakash ta charincha

HIdne manche ladcha-4

  2 times                           2 times
E|--------------------------------|-2222--------------------------|
B|--3333---------------------3333-|---------3333---------3333-----|
G|---------0000-----2222----------|----------------2222-----------|
D|--------------------------------|-------------------------------|
A|--------------------------------|-------------------------------|
E|--------------------------------|-------------------------------|

E|---2222-------------------------|-------------------------------|
B|---------3333-------------------|-------------------------------|
G|--------------------------------|-------------------------------|
D|--------------------------------|-------------------------------|
A|--------------------------------|-4444--------------------------|
E|--------------------------------|-2222--------------------------|

Udeshya ke linu cha
Udi chandra chunu cha
me lai hatama hat
sansar lai banaunu cha
HIdne manche ladcha-4
ha ha ha ha-4

E|--------------------------------|-------------------------7-----|
B|----8-------8--------8----8-----|----8-------8-------8-----8----|
G|------7-------7--------7-----7--|------7-------7-------7----7---|
D|--9----------------------7------|-9---------------------7-------|
A|---------10---------------------|--------10---------------------|
E|-----------------10-------------|----------------10-------------|

=================================================
Alternative style
Bm                      G
BIGNA BADA AYEE PARCHA
Bm                      A
DUNIYA LE DIKARCHA
Bm                      G
BICHALIT NA HUNU HAI
Bm                      G
J PARCHA TYO TARCHA.... -2
Bm                      G
HIDNE MANCHE LADCHA....-4

Bm                     G
MEHENAT GARYO BHANE
Bm                     G
JHYANGAR PANI TARINCHA
Bm                    G
JATI CHEKYO GHAMALAI
Bm                    G
PRAKASH TA CHARINCHA...-2
Bm                    G
HIDNE MANCHHE LADCHA....-4

Bm                    G
UDESE K LINU CHA
Bm                    G
UDI CHANDRA CHUNU CHA
Bm                    G
MILAI HATA MA HAT
Bm                      G
SANSAR LAI BANAUNU CHA..-2
Bm                         G
HIDNE MANCHE LADCHA...-4




POST YOUR COMMENTS

OTHER SONGS FROM SHADOWS
C Prakrti Added on 14th Jan 2006 11858 hits
T Hidne manche ladchha Added on 3rd Nov 2005 9968 hits
NepaloPedia Advertise
NSC APP