FIND YOUR SONG BOOK
CLICK HERE FOR ADVANCED SEARCH

You are here » Nepali Song Chord » Deep Shrestha » Hnu yatri euta

Hnu yatri euta

Singer : Deep Shrestha
Musician : Same
Lyricist : Not Available
Intro Piece
E|---3-----------3-5s7-5---2h3-5--2-----2-----------|
B|-5---5-------5--------------------3h5---3---5-----|
G|-------4---4------------------------------4-------|
D|---------5----------------------------------------|
A|--------------------------------------------------|
E|--------------------------------------------------|


Em            A                D             Em
Hnu yaatri yeuta rummali hidne   andheri raatama
Em             A               D              Em
Hnu yaatri yeuta kahani lekhne   jangali paatama


E|-------12-------12--------------------------------5h7-5s4---4-5-7-4---4-7--|
B|-10h12----10h12----12-10----10h12-10--5---5-7-8-7-------------------5------|
G|-------------------------12-------------7----------------------------------|
D|---------------------------------------------------------------------------|
A|---------------------------------------------------------------------------|
E|---------------------------------------------------------------------------|

E|-10-11-12--------------------7---------------8-10-11-12--|
B|----------13-------------7-8-------------7-8-------------|
G|-----------------8-9-8-9---------8-9-8-9-----------------|
D|---------------9---------------9-------------------------|
A|---------------------------------------------------------|
E|---------------------------------------------------------|


Em            E       A                    Em
Jindagi bityo  sahara sandhai aanshuko liyera
Em           Am              D           Em
Ujaada rahyo    jeevan tesai dukhama jiyera
   C                                         Em
Ma saamu kahile kina ho kina madhumaasa chayena Hnu yaatri.....


Em             E         A                   Em
Ichyako saagar   paudera rahyo swapnako sansara
Em            C               D              Em
Aaja ya bholi cha pugnu parne baato chan hajara
  C                                      Em
Har ek pal niyali herne tara basanta chayena Hnu yaatri..




POST YOUR COMMENTS

OTHER SONGS FROM DEEP SHRESTHA
C Ma ta door dekhi aayen Added on 12th May 2011 12384 hits
C Kasto Rahecha Jeevan mero Added on 3rd Apr 2007 4127 hits
C Ma pathar ko devata hoina Added on 17th Jun 2006 5463 hits
C Mero aankhama hardam Added on 7th Aug 2004 18578 hits
C Adharko Muskan ta kehi hoina Added on 15th Jan 2003 4959 hits
C Timi Aakasko Joon bhayou Added on 15th Jan 2003 3929 hits
C Dinko Ujyaloma Lukai Rakchu Added on 15th Jan 2003 4434 hits
T Hnu yatri euta Added on 13th Jan 2003 8196 hits
T Kati kamjor rahecha Added on 13th Jan 2003 21950 hits
T Biteka kura Added on 13th Jan 2003 27022 hits
NepaloPedia Advertise
NSC APP