FIND YOUR SONG BOOK
CLICK HERE FOR ADVANCED SEARCH

You are here » Nepali Song Chord » Arun Thapa » Jati Maya Laye Pani

Jati Maya Laye Pani

Singer : Arun Thapa
Musician : Same
Lyricist : Not Available
E|-4h5-7--4h5-7---2h3-5--2h3-5----2-3-5-2--------12--10-12-10-----------------|
B|------------------------------3---------3-5-----------------12-10----10-12--|
G|-----------------------------------------------------------------13---------|
D|----------------------------------------------------------------------------|
A|----------------------------------------------------------------------------|
E|----------------------------------------------------------------------------|


E
Jati Maya Laye Pani
E
Jati Kasam Khaye Pani
E
Nisthurile Bato Lagda
D
Ankha Tari Gaye Pachi
E
Manma Pirt Ta Parne Nai Bhayo
D                          E       D      E
Yo Man Tesai Marne Nai Bhayo ho ho ho ahah ha

E|-------------------------------------------------------------------------|
B|---------------7-10-9-7---7----9p7-9-7--7-7-7--7-10-9-7------------------|
G|-9-7---7--9-9-9----------9-------------------------------9---------------|
D|----9--------------------------------------------------------------------|
A|-------------------------------------------------------------------------|
E|-------------------------------------------------------------------------|


E
Sancho Priti Layekai Thinye
E
Choko Joban Diyekai Thinye
D            E
Bujnele Kura Nabujhe Pachi
D
Manma Kura Naliye Pachi
E
Manma Pir Ta Parne Nai Bhayo
D                         E        D       E
Yo Man Tesai Marne Nai Bhayo ho ho ho a ha ha


E
Dukha Timra Sabai Liyi
E
Sukha Dinchu Bhanekai Thinye
D            E
Bujnele Kura Nabujhe Pachi
D          E
Manma Kura Naliye Pachi
E
Manma Pirt Ta Parne Nai Bhayo
D
Yo Man Tesai Marne Nai Bhayo




POST YOUR COMMENTS

OTHER SONGS FROM ARUN THAPA
C Yo man ko k bhar huncha Added on 21st May 2011 3637 hits
T Sanjha ko jun sangai Added on 2nd Feb 2006 22524 hits
C Ankha ko nid koshi laane Added on 1st Apr 2005 13052 hits
T Jati Maya Laye Pani Added on 1st Apr 2003 32896 hits
C Katai tada timi bata Added on 20th Jan 2003 4302 hits
T Rituharuma Timi Added on 13th Jan 2003 32379 hits
NepaloPedia Advertise
NSC APP