FIND YOUR SONG BOOK
CLICK HERE FOR ADVANCED SEARCH

You are here » Nepali Song Chord » Madhyanna » Jindagiko k bharosa

Jindagiko k bharosa

Band : Madhyanna
Musician : Same
Lyricist : Not Available
E|-----------------------------------------7--|
B|-9p7---9p7---7-9-10---10-9-7-10-9-7-9-10----|
G|-----9-----9--------------------------------|
D|--------------------------------------------|
A|--------------------------------------------|
E|--------------------------------------------|


E                                D        E
He he la la la la la la la hm hm hm la la la
E                               D
Jindagi ko k bharosa yo ta sano khelauna ho
                       A               E
Dui aakhama ekma hanso   arko ma ruwai cha
E                                D         E
He he La la la la la la la hm hm hm lal la la


E|-4h5-7-4h5-7-12-12-12-10-9-7-5-5-4-4-4-4-5-7-5-4-----------------7-5-4-----------|
B|-------------------------------------------------7-5-5---------5-------7-5-------|
G|-------------------------------------------------------7---7-7-------------7-7-5-|
D|---------------------------------------------------------------------------------|
A|---------------------------------------------------------------------------------|
E|---------------------------------------------------------------------------------|


E
Manchele chaheko tyo kahan pugcha ra
            D
nata kahile pugne nai cha
                            A                    E
Harek Jeevan jiuna ko nimti   samjhauta kafi nai cha
E         D                      E
Juna here junai ramro ghama here pani testai
E            D                   E
Mrityu pachi e ammai kina sabai rittai

E
Ratriko andheri bihani ko sunaulo
                  D
yehi nai sansarko rit jo saathi
                              A                     E

Harek palama dukhai dukha cha   sukha ta bahana nai ho
E     D                E         D                E
Aaune saath aphononai nimti Jane saath arkaiko nimti




POST YOUR COMMENTS

OTHER SONGS FROM MADHYANNA
C Kehi pal aba baki cha Added on 14th Mar 2013 2562 hits
T Anautho Betha bhayecha Added on 26th Jun 2011 6951 hits
C Paradesh bata choro Added on 19th May 2011 2216 hits
C Timro mero sambandha Added on 10th Apr 2011 3936 hits
C Bhetiyera chutnu Added on 17th Jun 2006 4416 hits
C Tyo prem ko balidan Added on 26th Aug 2005 3704 hits
T Dhunga phorna k garo cha Added on 5th Sep 2003 4665 hits
C Janmida eklai marda ni eklai Added on 22nd May 2003 4346 hits
T Jindagiko k bharosa Added on 17th Jan 2003 16156 hits
NepaloPedia Advertise
NSC APP