FIND YOUR SONG BOOK
CLICK HERE FOR ADVANCED SEARCH

You are here » Nepali Song Chord » Nepathya » Jomsom Bazaarma

Jomsom Bazaarma

Band : Nepathya
Musician : Same
Lyricist : Not Available
Work collected from Forum: work of NoNamePlease
NepaliSongChord::Jomsom Bazaarma

Jomsom Bazaarma

Singer: Nepathya


Work collected from Forum: work of NoNamePlease

E|---------------------------------------------------------- ----------------------|
B|---6/8-8-8-8------------------6----------------------6---- ----------------------|
G|---------------5/7-7-7-7--5/7---7-5-----------2--5/7---7-5 ---------2------------|
D|-------------------------------------7-5--3/5------------- -7-5-3/5---5----------|
A|---------------------------------------------------------- ----------------------|
E|---------------------------------------------------------- ----------------------|

E|---------------------------------------------------------- ----------------------|
B|------6----------------------6---------------------6/8-8-8 -8--------------------|
G|--5/7---7-5---------2---5/7----7-5------------2----------- ----5/7-7-7-7---------|
D|------------7-5-3/5-----------------7-5--3/5----5--------- ----------------------|
A|---------------------------------------------------------- ----------------------|
E|---------------------------------------------------------- ----------------------|

Solo 2:

E|-------6---------------------------------------8--8-8----- -13-12-10-8-----------|
B|---6/8---8/6----8-6--------6-----8/10----8s10----------10- ----------------------|
G|-------------7------7-5-7-----5-------10------------------ ----------------------|
D|---------------------------------------------------------- ----------------------|
A|---------------------------------------------------------- ----------------------|
E|---------------------------------------------------------- ----------------------|

E|-8/10-------------8-------------------------|
B|-------10-6--8/10---10-8-8---6--------------|
G|--------------------------------5-----------|
D|-----------------------------------7-5------|
A|--------------------------------------------|
E|--------------------------------------------|

G
He... He He He.....
F
Ho Ho Ho...... Ho Ho Ho
G
Hawaaa... Sarara

G F G
Jomsomai Bazaar Ma
G F G
Bahra Bahje Hawa Sarara
G C F
He Hajuuuuur
F G
Ghara Hamro Pokhara
G F G
Ahile Samma Bhachhaina Gharbaara ra

G F
Jindagi Bageko Paani Ho o Ho.....
G
Pheri Pharki Aaudaina Lai Bari Lai
G F
Lagai Halaun Maya Yehi Belaaahaaa
G
Yesto Mauka Aaudaina Lai Bari Lai

G F
Tyo Danda Dhakyo Kuhiro Le ee
G
Ajha Paani Parena Lai Bari Lai
G F
Dila Chudee Lagyo Nisthori Le ee...
G
Man Ko Betha Bujhauna Lai Bari Lai

©2003 Suman Lal Shrestha




POST YOUR COMMENTS

OTHER SONGS FROM NEPATHYA
T Goreto gaunko duldai Added on 8th Jun 2011 5037 hits
C Binti cha mero Added on 10th May 2011 9419 hits
C Gandaki ko tiraima Added on 29th Apr 2011 12768 hits
C Yo Jindagani Added on 23rd Apr 2011 28966 hits
C Rangeen Chara Added on 10th Feb 2008 19366 hits
C Timro Aagaman Added on 27th Aug 2006 6292 hits
C Ghar ko kura Added on 11th Jul 2006 4475 hits
T Jomsom Bazaarma Added on 26th Feb 2006 25869 hits
C Chekyo Chekyo Added on 18th May 2005 24597 hits
T Chari maryo sisao ko goli le Added on 23rd Apr 2005 33742 hits
T Aaganai bhari Added on 25th Feb 2003 29201 hits
T Godhuli saanjhama Added on 24th Feb 2003 12159 hits
NepaloPedia Advertise
NSC APP