FIND YOUR SONG BOOK
CLICK HERE FOR ADVANCED SEARCH

You are here » Nepali Song Chord » Himalayan Band » Kahan timro mayalulai

Kahan timro mayalulai

Band : Himalayan Band
Musician : Same
Lyricist : Not Available
E|---------------------------------------------5---7----------|
B|-----------------------------------2-3-3/5---5---7----------|
G|---------------2-4--4/6--6/7/6--4-------------------6-4/6---|
D|--2/4--2--2/4-----------------------------------------------|
A|------------------------------------------------------------|
E|------------------------------------------------------------|
 
E|--------------------------------------------------------------------------------|
B|--------------------------------------------------------------------------------|
G|--------------2-4--4/6--6/7/6--4--4/6-4--2/4/2--1-------1--2--1--------2--------|
D|-2/4--2--2/4---------------------------------------2/4------------2/4-----------|
A|--------------------------------------------------------------------------------|
E|--------------------------------------------------------------------------------|
 
A           Bm         E        A
Kaha Timro Mayalu Lai Chhadi Rakhyou
        Bm    E            A
Tehi Goreto Ma Tesh Ko Maya Chha Ki Chhaina
        Bm    E            A
Tehi Goreto Ma Tesh Ko Maya Chha Ki Chhaina
A          Bm         E        A
Kaha Timro Mayalu Lai Chhadi Rakhyou


A                 Bm
Gagari Ma Thapeko Pani Pani
E                   A       D
Chimtiye Le Lipiako Aangan (Aangan)
A                 Bm
Agena Ma Daura Ko Dhuwa Dhuwa
E                       A    D
Aansho Puchhne Kusume Rumal (Rumal)
A           Bm          E                  A
Farki Aaune Ho Ke Hoena Motar Ko Dhuwa Udaudai

 A                              Bm
Geeta Gauchhu Sundari Khola Ko Tiraima Tiraima
E                         A        D
Maya Lauchhu Danda Pariko Gawaima (Gawaima)




POST YOUR COMMENTS

OTHER SONGS FROM HIMALAYAN BAND
C Malai dherai dherai maya Added on 11th Sep 2007 8203 hits
C Musu Musu Hansi deu Added on 14th Jul 2007 18848 hits
T aakasaima chil udyo Added on 18th May 2005 14149 hits
C Gaajalu le aankhai chopne Added on 15th Apr 2005 16681 hits
T Kahan timro mayalulai Added on 26th Aug 2004 18208 hits
NepaloPedia Advertise
NSC APP