FIND YOUR SONG BOOK
CLICK HERE FOR ADVANCED SEARCH

You are here » Nepali Song Chord » Deepak Bajracharya » Kali kali hissi pareki

Kali kali hissi pareki

Singer : Deepak Bajracharya
Musician : Same
Lyricist : Not Available

E|-11-10-8-11-10-8----8-----------------|-11/13-11-10------------------------------|
B|-----------------11---11-9-8----8-11--|-------------11/13-11-13-11-9-8----8------|
G|-----------------------------10-------|--------------------------------10--------|
D|--------------------------------------|------------------------------------------|
A|--------------------------------------|------------------------------------------|
E|--------------------------------------|------------------------------------------|

E|------------------------|--------------------------8-11-10-8--------|
B|-9-8----8---------------|--------8-9/8----8-8/9-11-----------11-----|
G|-----10---10-8-10-8-7---|-7/8-10-------10---------------------------|
D|------------------------|-------------------------------------------|
A|------------------------|-------------------------------------------|
E|------------------------|-------------------------------------------|

E|-8--11-10-8-----8------------------|
B|-------------11---11-9-8---------8-|
G|-----------------------------10----|
D|-----------------------------------|
A|-----------------------------------|
E|-----------------------------------|

E|------------------------|--------------------------8-11-10-8---|
B|-9-8----8---------------|--------8-9/8----8-8/9-11-------------|
G|-----10---10-8-10-8-7---|-7/8-10-------10----------------------|
D|------------------------|--------------------------------------|
A|------------------------|--------------------------------------|
E|------------------------|--------------------------------------|


Cm                 Bb
Kali Kali Hisshi Pareki
                      Cm
Hera Na kasto Aankha Tareki
                 Bb
Risha Le Ho Ki Khushi Le
               Cm
Bujnai Sakina Maile


Cm  
Muhar heryo Sarai Rishalu
               Bb
Tara Tini Chhin Dayalu
                       Ab
Kahile Dekhinchhu Sarai Nashalu
Gm               Cm
Kasti Ramri Meri Mayalu


Jati Heru Heru Lagni
Here Pachhi Pashai Bhagne
Kahile Dekhinchhu Sarai Chanchaal
Mero Man Ma Hunchha Halchaal





POST YOUR COMMENTS

Video of the Song

OTHER SONGS FROM DEEPAK BAJRACHARYA
T Farkera aaune chaina Added on 26th Jun 2012 10895 hits
C Priye timi ayou Added on 25th Apr 2011 12881 hits
C Oh Amira Added on 17th Sep 2007 12449 hits
C Nadhukeko man Added on 7th Sep 2007 8922 hits
C Mayako dorile ( Ju Ju Na Na ) Added on 7th Sep 2007 14703 hits
T Kali kali hissi pareki Added on 26th Aug 2004 11587 hits
C Andhyaroma chaaunchau timi Added on 22nd May 2003 18440 hits
NepaloPedia Advertise
NSC APP