FIND YOUR SONG BOOK
CLICK HERE FOR ADVANCED SEARCH

You are here » Nepali Song Chord » Narayan Gopal » Kehi Mitho Bata Gara

Kehi Mitho Bata Gara

Singer : Narayan Gopal
Musician : Same
Lyricist : Not Available
Tab 1
E|-----------------5-----8-5-8-10s13-10-8-6-5------|
B|-----6-8-9-8-6-8---6-8----------------------6----|
G|-5-7---------------------------------------------|
D|-------------------------------------------------|
A|-------------------------------------------------|
E|-------------------------------------------------|


       F          Dm         C             F
Kehi mitho bata gara rata tesai dhalkindai cha
        Dm       C      Bb          F
Bhare pheri ekantama runu ta chandaicha


  |***** Tab # *******|
E|-5-----5---5-----5-8-|-5-----5-------------|--------------|-10-13-10-------------5---|
B|---6-8---6---6-8-----|---6-8---6---8-6-----|--------------|----------13-10-8-6-8---6-|
G|---------------------|-----------8-----8-5-| Repeat Tab#  |--------------------------|
D|---------------------|---------------------|--------------|--------------------------|
A|---------------------|---------------------|--------------|--------------------------|
E|---------------------|---------------------|--------------|--------------------------|


F            Bb         C         F
Ramailo kura gara sapanako kura gara
         C       Bb          Dm        F
Sanga sangai bitaeko samjhanako kura gara
      Bb          F
Samjhanako kura gara
       F         Dm            C          F
Dukha choda dukhalai ta jindagani chandai cha
       Dm        C     Bb             F
Bhare pheri ekantama runu ta chandai cha


E|-8-8-8-6-5-6-5-------5---6-6-6-5---5-------5---------5-6-8-10-12--13--|
B|---------------8-6-8---8---------8---8-6-8---6---6-8------------------|
G|----------------------------------------------------------------------|
D|----------------------------------------------------------------------|
A|----------------------------------------------------------------------|
E|----------------------------------------------------------------------|

E|-13-13-13-12-10-12-10----10-12----11-11-11-10-8-10-8----8-10-----9-9-9-8-6-8-6-5-----|
B|----------------------13-------13--------------------11------11------------------8-6-|
G|-------------------------------------------------------------------------------------|
D|-------------------------------------------------------------------------------------|
A|-------------------------------------------------------------------------------------|
E|-------------------------------------------------------------------------------------|

Play Tab 1


F                 Bb         C         F
Aau nachaun andhyaroma junukiri nache jastai
    C           Bb          Dm          F
Batasa ma udaun aaja simala ko bhuwa jastai
    Bb           F
Simalako bhuwa jastai
    F              Dm         C             F
Dui kadam saatha hindau chuttinu ta chandai cha
      Dm           C       Bb         F
Bhare pheri ekanta ma runu ta chandai cha




POST YOUR COMMENTS

OTHER SONGS FROM NARAYAN GOPAL
C Mohani Laagla Hai Added on 25th Jun 2012 12311 hits
C Aja bholi harek saanjh Added on 6th Jun 2011 7706 hits
C Ankha chopi narou bhani Added on 10th Apr 2007 14026 hits
T Malai Nasodha Kahan Dukcha Added on 17th Jan 2003 29238 hits
T Euta Mancheko Mayale Kati Added on 17th Jan 2003 23462 hits
T Kehi Mitho Bata Gara Added on 17th Jan 2003 38025 hits
T Yeti Dherai Maya Diyi Added on 17th Jan 2003 19642 hits
C Malai Maph gari deu Added on 17th Jan 2003 19651 hits
NepaloPedia Advertise
NSC APP