FIND YOUR SONG BOOK
CLICK HERE FOR ADVANCED SEARCH

You are here » Nepali Song Chord » Karma Band » Ko Hau Timi

Ko Hau Timi

Band : Karma Band
Musician :
Lyricist :
Album : Firs Love
   
Song Provided By : Pujan Shrestha
Duet song from the movie FIRST LOVE. By Surendra Man Singh and Ranjeeta Rimal

Intro: D                      
e|-----------------------------------------------|
B|-----------------------------------------------|
G|-----------------------------------------------|
D|-----------------------------------------------|
A|---3-3-3-------3-3-3-----------3-3-3---3-3-----|
E|-----------5-------------7-----------5---------|

 

 

D
ko hau timi mero ko hau timi
D
ko hau timi mero ko hau timi

 

 

e|-----------------------------------------------|
B|-----------------------------------------------|
G|-----------------------------------------------|
D|-----------------------------------------------|
A|---3-3-3-------3-3-3-----------3-3-3---3-3-----|
E|-----------5-------------7-----------5---------|

 


D
aankha ma hera mero sapana cha
D
tyo sapana vitra, euta sansar cha
G                      D
tyo sansara timi bina adhuro cha
G                      D
tyo sansara timi bina adhuro cha
A
thaha chaina kina,
           D
chokho maya garchu,
      A           G            A     D
mero aayu timilai sare timro saamu ma hasdai marchu,

 

 


(D     Dm   D   Dm)
D        A      A    D
kaski huncheu, kaha huncheu
D      A        A      D
meri huncheu, hunnau k cha,
D         A   A      D        D   A    A     D
yee sabai ko matlab chaina, timi hase malai pugcha
D               G           A         A     D     Dm   F#         D  
timi lai thaha, nahos tara, ekohoro, maya garchu, eko horo, maya garchu
D               G             A         D
hey hey hey hey - hey hey - hey hey - na na
D               G             A         D
hey hey hey hey - hey hey - hey hey - na na


 

 

D    A        A      D     D     A       A      D
mero dukha, panchya-udai, najik vanda, najik vachau
D      A        A      D     D     A       A      D
kasto naata, saaino samjhi, mero aashu, puchhi-rachau
D                G       A             A    D         Dm  F#    F#    D
sanka lagcha, bina maya yeti shyahar, kasle garcha, bina maya, kasle garcha


Repeat 1st verse same as above





POST YOUR COMMENTS

Video of the Song

OTHER SONGS FROM KARMA BAND
C Taremam Taremam Added on 9th Aug 2013 2317 hits
C Yadi samay ko gati Added on 8th Aug 2013 2777 hits
C Timi Choto Geet Added on 7th Aug 2013 695 hits
T Naya Sapana Naya Sahar Added on 25th Sep 2012 4256 hits
T Ko Hau Timi Added on 26th Jul 2011 9558 hits
C Chaina Maile Added on 15th Jul 2006 8347 hits
C Maryo Added on 2nd Nov 2005 5138 hits
C Ho chahanchu ma Added on 8th Apr 2005 2562 hits
T Kapasai Komal Added on 8th Apr 2005 2218 hits
T Kahan hola ghara bara Added on 24th Nov 2004 18307 hits
C Timro maunatama Added on 23rd Aug 2004 16172 hits
C Hukka mero Added on 22nd May 2003 14435 hits
NepaloPedia Advertise
Samrit