FIND YOUR SONG BOOK
CLICK HERE FOR ADVANCED SEARCH

You are here » Nepali Song Chord » Samrit Lwagun » LOVE OF ARPEGGIOS

LOVE OF ARPEGGIOS

Singer : Samrit Lwagun
Musician :
Lyricist :
   
Song Provided By : Samrit Lwagun

H=hammer on
P=pull off
S=slide
~=vibrato

MAIN RIFF
Repeat 8 Times*

--------------------9--12S10-10P7------------------
---------------10---------------------9------------
-----------9-----------------------------9---------
-------11----------------------------------9-------
---12-----------------------------------------10---
---------------------------------------------------


---------------5--9S7-7P4------------------
----------------7-----------------5--------
--------------7----------------------4-----
-----------7---------------------------6---
-7S5H9--------------------------------7----
-------------------------------------------



SECOND RIFF
Repeat 2 Times*

----------------9-12S14S12P9------------------------------
------------10--------------------10----------------------
---------9-----------------------------9------------------
-----11----------------------------------11---------------
--12-----------------------------------------12----7H11---
----------------------------------------------------------


--------7-10S12S10P7-----------------------------5-7S9S9P5----------------
---------9-----------------9---------------------------7-----------7------
------9------------------------9----------------------7---------------7---
--9-----------------------------9-----------------7--------------------7--
--------------------------------11-----5H9---------------------------9----
--------------------------------------------------------------------------


------------------4H5P4-------------------------------4-5S9-5-5H7P5---
--------------5-------------5-------------------------5---------------
----------4---------------------4------------------4------------------
------6-----------------------------6----------6----------------------
--7------------------------------------7---7--------------------------
----------------------------------------------------------------------



REPEAT MAIN RIFF 4 TIMES *
BRIDGE**

----------------------12--17P12----------------------------------------10--15P10---
-----------------15----------------15------------------------------13--------------
------------14-------------------------14---------------------12-------------------
-------16-----------------------------------16------------14-----------------------
--17--------------------------------------------17----15---------------------------
-----------------------------------------------------------------------------------


---------------------------------10-14P10-----------------------
--13----------------------------12--------------12--------------
------12--------------------11----------------------11----------
----------14------------12------------------------------12------
--------------15----14--------------------------------------14--
----------------------------------------------------------------


--------------------9H10P9-------------------------------9H12P9---------------------
----------------10------------10-----------------------10------------10-------------
-------------9--------------------9------------------9---------------------9--------
---------11-------------------------11----------11--------------------------11------
-----12---------------------------------12--12----------------------------------12--
------------------------------------------------------------------------------------


----------------9--------------------11------------------14-------------------16-19~~-
------------10------------------12-------------------15------------------17-----------
---------9------------------11-------------------14------------------16---------------
-----11----------------13-------------------16------------------18--------------------
-12----------------14-------------------17------------------19------------------------
--------------------------------------------------------------------------------------



MAIN RIFF (LAST PART)
Repeat MAIN RIFF 8 Times*

-----------------9--12S10-10P7---------------------------5--9S7-7P4----------------
------------10------------------9-------------------------7-----------5------------
--------9--------------------------9--------------------7----------------4---------
----11-------------------------------9---------------7---------------------6-------
-12--------------------------------------10--7S5H9-------------------------7----12-
-----------------------------------------------------------------------------------





POST YOUR COMMENTS

Video of the Song

OTHER SONGS FROM SAMRIT LWAGUN
T PSYCHO MAKURA 2 – MAKURA KO BADLAA Added on 24th Jul 2016 1205 hits
T Pehla Nasha Rocks Added on 12th Sep 2014 12457 hits
T PSYCHO MAKURA GUITAR TABS Added on 26th Jul 2014 2230 hits
T LOVE OF ARPEGGIOS Added on 28th Jan 2013 1378 hits
C Sundar Sansar Added on 29th Sep 2012 1737 hits
T Gairi Rocks Added on 20th Apr 2012 2479 hits
NepaloPedia Advertise
NSC APP