FIND YOUR SONG BOOK
CLICK HERE FOR ADVANCED SEARCH

You are here » Nepali Song Chord » Miscellaneous » Lajaalu muskanle preyasi

Lajaalu muskanle preyasi

Singer : Miscellaneous
Musician : Same
Lyricist : Not Available

E|------------------------------------------------------------5-3-2---2---5-3-2---2--|

B|-3-5-5-5s7-7s5-3-5-5-5s7----3-5-5-5s7-7s5-3-5p3-5-3---------------5-----------5----|

G|----------------------------------------------------[Piano]------------------------|

D|-----------------------------------------------------------------------------------|

A|-----------------------------------------------------------------------------------|

E|-----------------------------------------------------------------------------------|

 

E|-3-5-3-2-3--3-3-2p0-0-----------------Repeat Blue notes---------------5s7-5-----------|

B|----------------------3-3-5-5s7-3-5---------------------------3-5-5s7---------7-5-3---|

G|----------------------------------------------------------2-4-----------------------4-|

D|--------------------------------------------------------------------------------------|

A|--------------------------------------------------------------------------------------|

E|--------------------------------------------------------------------------------------|

 

E|-0-2-0-------------------------5s7-7-5-3s5-3-----------------------------------------|

B|-------3-2-4---------3-5-5s7-5---------------3-5-5-5s7-5-----------------------------|

G|---------------2-2-4----------------------------------------Repeat Green notes-3-5---|

D|-------------------------------------------------------------------------------------|

A|-------------------------------------------------------------------------------------|

E|-------------------------------------------------------------------------------------|



D                  G

Lajaalu muskaan le preyasi

      A               D

Chori lagyou man mero timile

 

D               A

Mayaalu kehi ta bolana

   G              D

Chahanchu timilai bhana na

D       

Gaajalu aankhale herana

 

E|-------------------14-12-------------------12-12-12br-12-10-12-10----------------------|

B|-12-14-14b-14br-12-------15-14-12----12-14------------------------12-14---12-12p10-----|

G|-----------------------------------------------------------------------------------12--|

D|---------------------------------------------------------------------------------------|

A|---------------------------------------------------------------------------------------|

E|---------------------------------------------------------------------------------------|

 

E|-------------14-12---------|

B|-14-14p12----------14-15---|

G|----------14---------------|

D|---------------------------|

A|---------------------------|

E|---------------------------|

 

D            A

Dubera timro yaadama

  G                D

Rahanchu sadhaiani saatha ma

D

Aau na angaali herana

     





POST YOUR COMMENTS

Video of the Song

OTHER SONGS FROM MISCELLANEOUS
C Kun baat ma jaandai chau Added on 23rd Jul 2016 1873 hits
C Saune Jharima Added on 13th Mar 2013 3541 hits
C Shanti lukau kahan Added on 27th Oct 2012 5310 hits
C Mutu mero chudi lagin Added on 3rd Oct 2012 3225 hits
C Samhali rakhe yo man Added on 26th Aug 2012 1924 hits
T Tyo_pari_dandaima Added on 21st Jul 2012 3610 hits
C Chari udyo baadal chuna lai Added on 9th Jan 2012 10388 hits
C Memories Added on 7th Jan 2012 2549 hits
C Ke bhanne hamro samaya Added on 2nd Oct 2011 11716 hits
T Tunguna ko dhunma Added on 27th Aug 2011 7300 hits
T Rastriya Gaan Added on 5th Aug 2007 10922 hits
C Bidesh Jane Mayalu Added on 27th Aug 2006 12944 hits
C Malai Maaf gari deu Added on 27th Aug 2006 11688 hits
C SADHAI MA Added on 27th Aug 2006 4998 hits
C Pahilo Maya Added on 11th Jul 2006 7657 hits
C Thakeko e nayan ma Added on 26th Feb 2006 4050 hits
T Antim Lakshya Added on 4th Feb 2006 9947 hits
C Cham cham Added on 27th Jan 2006 7416 hits
C Samaya Added on 14th Jan 2006 5600 hits
C Ma sadhai Added on 14th Jan 2006 5982 hits
C Bujina maile Added on 14th Jan 2006 5916 hits
T Pheri Pani Timro Tasbir Added on 29th Aug 2005 7124 hits
C Saano ma Added on 2nd Jun 2005 8040 hits
C Aakhir tada bhai halyou Added on 31st May 2005 9833 hits
T Phool ko ankhaama Added on 23rd May 2005 15656 hits
C ankha bhari Added on 8th May 2005 6971 hits
C Saagar jhain gahiro Added on 8th Sep 2004 6220 hits
T Lajaalu muskanle preyasi Added on 11th Aug 2004 15970 hits
C Jaagen jaagen sara raat Added on 11th Aug 2004 5087 hits
C Timilai chahanu maile Added on 2nd Dec 2003 5185 hits
C Sanjhaima eklai aauna Added on 2nd Dec 2003 3958 hits
C Eklai eklai ma Added on 21st Feb 2003 4565 hits
C Preet bina youban Added on 13th Feb 2003 4676 hits
C Ma aaphaima haraaunchu Added on 3rd Feb 2003 3292 hits
C Kun desh ki pari hau timi Added on 24th Jan 2003 4363 hits
C Kati baschau ori laajko ghumto Added on 24th Jan 2003 6342 hits
C Gairi Khetko Shirai Hanyo Added on 17th Jan 2003 12093 hits
T Asarai Mahinama Added on 15th Jan 2003 30207 hits
NepaloPedia Advertise
NSC APP