FIND YOUR SONG BOOK
CLICK HERE FOR ADVANCED SEARCH

You are here » Nepali Song Chord » Sibira » Lalupate phulyo banaima

Lalupate phulyo banaima

Band : Sibira
Musician : Same
Lyricist : Not Available

E|--------------------------------------------------------------------------------------|
B|--------------------------------------------------------------------------------------|
G|-14-16-14-------14-16-16b-16r-14h16-14-----------14-16p14-13h14-13--------------14----|
D|----------14h16------------------------16--14-16-------------------16-16s18-14-----14-|
A|--------------------------------------------------------------------------------------|
E|--------------------------------------------------------------------------------------|


A               C#m
Lalupate Phulyo Banai Ma
A                 F#m
Timro Maya Bashyo Manai Ma
Bm
Kahile Gala Ko Lali Le
E            A
Kahile Mitho Boli Le


E|------------------------------------------------------------------------------------------|
B|-14-14----14----------17-14---14-14-------------------------------------------------------|
G|-14-14-16----16-14-16----14---14-14-16-14----14-----16-16s18-16-14----14h16-16------------|
D|------------------------------------------16----16-----------------16----------18s16-14-16|
A|------------------------------------------------------------------------------------------|
E|------------------------------------------------------------------------------------------|

E|-----------------|
B|----------17-17--|
G|-----------------|
D|16-18--s18-------|
A|-----------------|
E|-----------------|

A                C#m
Gajalu Aankha Ko Herai Le
A                   F#m
Rata Bhari Ko Ninda Udayo
Bm
Lajaune Timro Tyo Bani Le
E                A
Hami Lai Behoshi Tulayo
E                A
Hami Lai Behoshi Tulayo


E|--------------------------------------|
B|-------------------------------17-----|
G|--------14-16-16b-16r-14-16s18----18--|
D|-14h16--------------------------------|
A|--------------------------------------|
E|--------------------------------------|


A                C#m
Chameli Ko Phula Tipe Ra
A              F#m
Chultho Ma Lai Dehe Hai

Bm
Nadiya Pani Timile
E                A
Maile Maya Chori Lihe Hai
E                A
Maile Maya Chori Lihe Hai





POST YOUR COMMENTS

OTHER SONGS FROM SIBIRA
C Manaima aljhecha samjhana Added on 1st Jun 2011 1895 hits
T Lalupate phulyo banaima Added on 26th Aug 2004 6461 hits
NepaloPedia Advertise
NSC APP