FIND YOUR SONG BOOK
CLICK HERE FOR ADVANCED SEARCH

You are here » Nepali Song Chord » Kandara » Leka ki he maya

Leka ki he maya

Band : Kandara
Musician :
Lyricist :

Solo Played in Intro:

Note: Put your palm on strings while playing this solo

E|------------------------------------------------|
B|------------------------------------------------|
G|------------0-2---4-4-4-4-4-4-4-2-4-4-4-4-4-4---|
D|-2-2-2-2-2--------------------------------------|
A|------------------------------------------------|
E|------------------------------------------------|


E|---------------------------------------------|
B|-----3----3----------------------------------|
G|-2-4----4---4---2-2-2-2-2-2-2-0-2-2-2-2-2----|
D|---------------------------------------------|
A|---------------------------------------------|
E|---------------------------------------------|


E|---------------------------------|
B|---------------------------------|
G|------0-2-0----------0-2-0-------|
D|-0-2--------2-2--0-2-------2-2---|
A|---------------------------------|
E|---------------------------------|

 


Chorus:

G        Am
Timi Ramri Chhauu
  G                Em
Sabai Le Malai Bhanchhan Ni
Em                    G
Ghar Chhodi Bhagera Najanu
  Am
Aama Tesaile Bhanchhin Ne
 
    Em             C
Ghas Kati Aahile Aaula Ni
                  
  G
Bhandai Lau Hera Ma Hinde


G           Am   C D
Leka Ki Hey Maya
Am     Em          G
Mohani Sabai Lai Lagaune
    
        Am     C D
Aankhako Rimjim Le
Am       Em        G
Mana Nai Khalbalai Dinee


E|--------------------------------|-----------------------------|
B|--------------------------------|-----------------------------|
G|-------7-7-9--9/12-12--9-9-7-9--|--7-7-9-9-9/12-12-12-9-9-7/9-|
D|-7/9-9--------------------------|-----------------------------|
A|--------------------------------|-----------------------------|
E|--------------------------------|-----------------------------|


E|------------------------------|----------------------------|
B|------------------------------|----------------------------|
G|-7-7-9-9-9/12-12-12-14-14-12--|-12-12-9-7-9-12-12-14-14-12-|
D|------------------------------|----------------------------|
A|------------------------------|----------------------------|
E|------------------------------|----------------------------|


E|-------------------------------------------------------------------|
B|-------------------------------------------------------------------|
G|-12-12-12-12-14-16-16-14-14-12/14-12-12-14-14-12-9-9-12-12-9-7-7-9-|
D|-------------------------------------------------------------------|
A|-------------------------------------------------------------------|
E|-------------------------------------------------------------------|



E|--------------------------------|--------------------------------|
B|--------------------------------|--------------------------------|
G|-------7-9--9/12-12--9-9-7-9----|--7-7-9-9-9/12-12-12-9-9-7/9-7--|
D|-7/9-9--------------------------|--------------------------------|
A|--------------------------------|--------------------------------|
E|--------------------------------|--------------------------------|

 


G                C       G
Gurash Tipera Chulthoo Sajhe Ki
         
C   D
Aankhama Kalo Gajal Layeki
   
C              G
Kya Sarai Ramri Bhayeki
      
C             D
kshann Hasdai Herdai Hindai


Addtional Lyrics:

Syauu  Jasto Gala Aankha Lagla Hai
Komala Manlai Phakaula Hai
Kaha Jana Timi Hindeki
Hami Lai Kina Birsheki





POST YOUR COMMENTS

Video of the Song

OTHER SONGS FROM KANDARA
C Tagaroma rumal rakhi Added on 5th Jun 2011 7952 hits
T Leka ki he maya Added on 19th Apr 2011 10136 hits
C Timi Pari Added on 27th Aug 2006 21906 hits
C Bisawas ko diyo Added on 8th Sep 2004 5291 hits
T Chanchale kaanchi ko jooban Added on 8th Sep 2004 9694 hits
T Hongkong Pokhara Added on 2nd Jul 2003 23014 hits
NepaloPedia Advertise
NSC APP