FIND YOUR SONG BOOK
CLICK HERE FOR ADVANCED SEARCH

You are here » Nepali Song Chord » Om Bikram Bista » Ma Mauntama Aljhiraheko

Ma Mauntama Aljhiraheko

Singer : Om Bikram Bista
Musician : Same
Lyricist : Not Available
E|------7---7------7---7-------2-5-3--|
B|---8----8---8-7----7---7-5----------|
G|-7----------------------------------|
D|------------------------------------|
A|------------------------------------|
E|------------------------------------|
   G        Bm         Am    D7       G    Bm/Am/D/G
Ma maunta ma   aljhi raheko   euta jeevan
G                     D      D7     G
Kahan jane kaslai sodhne ksalai sodhne

E|---------------------|-------2-----------|
B|-----3-----3---------|-----3---2-----5-3-|
G|---4-----4---2---5-2-|---4-------5-2-----|
D|-5-----5-------2-----|-5-----------------|
A|---------------------|-------------------|
E|---------------------|-------------------|

G                F          C            G
Yesari nai sara jeevan andhakarma bitne hoki
G                 A           D           Am  D     G
Maya maya bhanda bhandai jindagi nai mero bit ne ho ki
Ma pratikshama aljhi raheko euta jeevan

G               F            C           G
Yesari nai sara betha sunyatama bitne ho ki
G                 A               D        Am  D     G
Maya maya bhanda bhandai youvan mero yahan dub ne ho ki
Ma aashai aashma aljhi raheko euta jeevan




POST YOUR COMMENTS

OTHER SONGS FROM OM BIKRAM BISTA
T Garo paryo launa jiuna Added on 3rd Feb 2003 3209 hits
C Mero rahar biunjhiyera Added on 28th Jan 2003 3693 hits
C Yaad gara ti din haru Added on 28th Jan 2003 5280 hits
T Ma Mauntama Aljhiraheko Added on 24th Jan 2003 30660 hits
C Mero yaad ajhai aauncha bhane Added on 24th Jan 2003 9389 hits
NepaloPedia Advertise
NSC APP