FIND YOUR SONG BOOK
CLICK HERE FOR ADVANCED SEARCH

You are here » Nepali Song Chord » Melodies » MalShree dhun

MalShree dhun

Singer : Melodies
Musician : Same
Lyricist : Not Available
                                      *Play 2 Times
E|-0-0-5-5-3-3-2-1--------------------|-----------------------------------|
B|-------------------3-5-6-5-3--------|------------3-3---3-5-6-5-3--------|
G|------------------------------5-4-2-|--1-1-1-2-4-----4------------5-4-2-|
D|------------------------------------|-----------------------------------|
A|------------------------------------|-----------------------------------|
E|------------------------------------|-----------------------------------|

E|-7-7-7-8-8-8-7-5-7-5-5-4-4-5-------------------------4-4-5--4-5-7-8-7-5-4-----|
B|----------------------------------------5--------5-7----------------------7-5-|
G|-------------------------------7-7-7--7---6-7--7------------------------------|
D|------------------------------------------------------------------------------|
A|------------------------------------------------------------------------------|
E|------------------------------------------------------------------------------|





POST YOUR COMMENTS

OTHER SONGS FROM MELODIES
T Chati ma mero yo choto bhoto Added on 23rd Aug 2011 8420 hits
T Simsime pani ma Added on 23rd Apr 2011 6992 hits
T DeusiRe Added on 12th Aug 2005 12116 hits
T Rajamati kumati Added on 2nd Sep 2003 7752 hits
T Resam firiri Added on 20th Jan 2003 15454 hits
T MalShree dhun Added on 15th Jan 2003 10931 hits
NepaloPedia Advertise
NSC APP