FIND YOUR SONG BOOK
CLICK HERE FOR ADVANCED SEARCH

You are here » Nepali Song Chord » Narayan Gopal » Malai Nasodha Kahan Dukcha

Malai Nasodha Kahan Dukcha

Singer : Narayan Gopal
Musician : Same
Lyricist : Not Available
E|------------------------|
B|---------1--------------|
G|-----0-2---2-0-----0----|
D|-3-3-----------3-3---0-3|
A|------------------------|
E|------------------------|

F   D7        Gm  C7    Eb  C7        F
Malaaaai nasodha     kahan     dukcha ghau
   Bb        A7        Dm     F
Ma j chu thikai chu bitholna naau


E|------------------------------------------------------------------|
B|-------1-3-1---1--------1-3-1---1--------1-3-1---1----------------|
G|-2-2-2-------2---2-2--2-------2---2-1--1-------1---1-1----1-------|
D|------------------------------------------------------------3-0-3-|
A|------------------------------------------------------------------|
E|------------------------------------------------------------------|


F   Am      Dm       Ab      F
Merooo Jindagima sadhain yo udasi
F   Am         Dm      Db  C7    F
Sakeeeekai chu jiuna kahileeee nahasi
F               Gm             F
Mero Chahana ho timiiii hanse pugcha
F                C7           F
Mero ghau timi nahanse po dukcha
  Eb  Gm                 C7     F
Tesai le ma bhanchu timi   muskurau


F    Am      Dm     Ab         F
Kataaai Behosima karayen bhane ma
F    Am       Dm   Db  C7     F
Kataaai Biranima   harayen bhane ma
F                  Gm         F
Mero Prapti timi yeti thane pugcha
F                C7         F
Mero ghau timi nahanse po dukcha
   Eb                   C7     F
Andhyaromai jiuna thiyo    Najalau




POST YOUR COMMENTS

OTHER SONGS FROM NARAYAN GOPAL
C Mohani Laagla Hai Added on 25th Jun 2012 24256 hits
C Aja bholi harek saanjh Added on 6th Jun 2011 13223 hits
C Ankha chopi narou bhani Added on 10th Apr 2007 19947 hits
T Malai Nasodha Kahan Dukcha Added on 17th Jan 2003 41478 hits
T Euta Mancheko Mayale Kati Added on 17th Jan 2003 33998 hits
T Kehi Mitho Bata Gara Added on 17th Jan 2003 57535 hits
T Yeti Dherai Maya Diyi Added on 17th Jan 2003 29385 hits
C Malai Maph gari deu Added on 17th Jan 2003 28557 hits
NepaloPedia Advertise
NSC APP