FIND YOUR SONG BOOK
CLICK HERE FOR ADVANCED SEARCH

You are here » Nepali Song Chord » The Uglyz » Maya(Tab)

Maya(Tab)

Band : The Uglyz
Musician : Same
Lyricist : Not Available
Provided by: Suman Maharjan
Standard Tuning: e B G D A E
Placing Capo in 2nd Fret.

1st 2nd* 3rd
e|----|--|||--|-----|-----
B|----|--|||--|-----|-----
G|----|--|||--|-----|-----
D|----|--|||--|-----|-----
A|----|--|||--|-----|-----
E|----|-------|-----|-----

*= Capo is placed in 2nd fret but not over the 'E' string.

Intro: x5

(00:01-00:20)
e|--------------------------------|
B|---3-3---3-3---3---2h3p2---2-3--|
G|---2-2---2-2---2---------2------|
D|--------------------------------|
A|-------------0---0--------------|
E|-0-----3------------------------|

(00:21-00:28) x1
e|------------------------------------------------------|
B|----3-3---3-3---3-3----2-2----2-2----2-2----2-2--2h3--|
G|----2-2---2-2---2-2----2-2----2-2----2-2----2-2--2----|
D|------------------------------------------------------|
A|--------------0------0------0------0------0-----------|
E|--0-----3---------------------------------------------|

(00:29-00:45) x4
e|------0--------0--------0------------------|
B|----3---3----3---3----3---3--2h3p2---2-3---|
G|-----------------------------------2-------|
D|--0--------0--------0----------------------|
A|-------------------------------------------|
E|-------------------------------------------|

(00:46-01:01)
|------P.M.---------| |--------P.M.-------| x4
e|------------------------------------------------------------------------|
B|------------------------3s8-8-7-5-7------------------------2h3-3-5-2-3--|
G|--2-2-2-2-2-2-2-2-2-2-2--------------2-2-2-2-2-2-2-2-2-2-2--------------|
D|--0-0-0-0-0-0-0-0-0-0-0--------------0-0-0-0-0-0-0-0-0-0-0--------------|
A|------------------------------------------------------------------------|
E|------------------------------------------------------------------------|

For other verse follow as of above.
For lead part @ 02:11-02:40 use chords EB/AB continuously(these chords are for those who use capo
without using capo use DA/GA continuously.) and sorry for previous
totally wrong chords and tabulatures.
If u have any comments feel free, mail me @ suman_maharjan88@hotmail.com




POST YOUR COMMENTS

OTHER SONGS FROM THE UGLYZ
T Ajhai Added on 26th Sep 2011 3150 hits
C K Added on 27th Jun 2011 2774 hits
C Sandhai Bhari Added on 11th Apr 2011 3909 hits
T Saathi Added on 2nd Feb 2008 23297 hits
T Maya(Tab) Added on 8th Jul 2007 12593 hits
C To an angel Added on 13th Feb 2006 5071 hits
T Maya-1 Added on 18th Sep 2005 5144 hits
C Chahanna ma Added on 18th Sep 2005 7331 hits
T maya Added on 20th Aug 2005 23122 hits
T aundai jadai Added on 27th Apr 2005 46501 hits
NepaloPedia Advertise
NSC APP