FIND YOUR SONG BOOK
CLICK HERE FOR ADVANCED SEARCH

You are here » Nepali Song Chord » 1974 A.D. » Mutu Bhari Bhari

Mutu Bhari Bhari

Band : 1974 A.D.
Musician : Same
Lyricist : Not Available
      C              F
Mutu bhari bhari sametine cha
         C
Sabaiko maya preranaharu
                             F
Hridaya bhari bhari Gunji rahanecha
        C
Srijana ka dhun haru
 C
Chati bahri bhari mero
Bb            F          C
  Ataaunecha sabaiko yaadharu
C
Dina maile k po saken
Bb                F              C
  Puauna bhane dherai nai paayen saath haru
Bb            F        C
  Aaphno bane saara sansaar haru

E|---------------------------------------------8----8-8-10s12-8----------------------------|
B|-3s5-3-3h5------------3s5-3----3-5-5s8--8h10---10-------------6-8s10-6-------------------|
G|-----------5--5-3-2-5--------5-----------------------------------------------------------|
D|-----------------------------------------------------------------------------------------|
A|-----------------------------------------------------------------------------------------|
E|-----------------------------------------------------------------------------------------|

E|-------3-------------3-------------------------------------------------------------------|
B|---3-5-----------3-5---------------------------------------------------------------------|
G|-5-------5s7-5-5-------------------------------------------------------------------------|
D|-----------------------------------------------------------------------------------------|
A|-----------------------------------------------------------------------------------------|
E|-----------------------------------------------------------------------------------------|


Am                        Em
Saathi bhaiharule laayeko gunharu sangai
Am                         Em
maile srijana gareko mitho dhunharu saatdai
Bb                    C
Sablai maya garne kasam maile khaayen
Bb                       C
Sablai mitho sandesh charne baacha maile garen


Am                    Em
Uniharuko antar aatma le sandhai
Am                      Em
Duldai ramdai alghi rahane sandhai
Bb                      C
Sablai aaphno bhanne kasam maile khaayen
Bb                     C
Sablai maya garne baacha maile garen




POST YOUR COMMENTS

OTHER SONGS FROM 1974 A.D.
C Mayalu le Added on 17th Feb 2008 48927 hits
C Mildaina Kathaharu Added on 28th Jul 2007 13464 hits
C Tyo raatko Added on 14th Jan 2006 18772 hits
C Eklo chhu Added on 15th Oct 2005 14368 hits
T NepaliFullTab Added on 8th Oct 2005 16392 hits
T Hidda Hiddai Added on 8th Oct 2005 71822 hits
T PINJADA KO SUGA Added on 8th Oct 2005 20854 hits
C Gurasai fulyo Added on 28th Aug 2005 50100 hits
T Nepali Added on 30th Jul 2005 33671 hits
C Kahile Kahile Added on 18th Jul 2005 19910 hits
C Chaubandi Choli Added on 29th Nov 2004 33167 hits
T Mutu Bhari Bhari Added on 20th Nov 2004 34423 hits
T Sambodhan timilai gardaichu Added on 11th Aug 2004 48010 hits
C Timilai Piratile bandhula Added on 13th Feb 2003 26522 hits
T (1974 AD)Deurali Bhanjyang Added on 13th Feb 2003 16463 hits
C Chundaina Timro Mayale Added on 28th Jan 2003 48650 hits
T Parelima lukai rakhana Added on 15th Jan 2003 69435 hits
T Dherai dherai aauncha manama Added on 15th Jan 2003 62942 hits
NepaloPedia Advertise
NSC APP