FIND YOUR SONG BOOK
CLICK HERE FOR ADVANCED SEARCH

You are here » Nepali Song Chord » 1974 A.D. » Nepali

Nepali

Band : 1974 A.D.
Musician : Same
Lyricist : Not Available
Chord started by: Mr. Luju Ojha
Edited By : Suman
Intro Tab worked by: Mr. Suraj Raj Mali
F
E|---------------------|---------------------------|-----------------------|
B|---------------------|---------------------------|-----------------------|
G|---------------------|---------------------------|-----------------------|
D|--10--------9--------|--7--------7----9----10----|-----------------------|
A|---------------------|-----------x---------------|--8~-------------7h8h7-|
E|---------------------|-----------x---------------|-----------------------|

--------------------|--------------------|------------------------------|
--------------------|--------------------|------------------------------|
--------------------|--------------------|------------------------------|
--------------------|--9~-------7~-------|--5~---------x----------------|
--------------------|--------------------|-----------x~--5~---7~---8~---|
--10~---------------|--------------------|---------x~-------------------|

-------------------|------------------|---------------------|
-------------------|------------------|---------------------|
-------------------|------------------|---------------------|
-------------------|------------------|--10~-------9~-------|
--7~---------------|------------------|--x~--------x~-------|
-------------------|------------------|--x~--------x~-------|

---------------------------|-----------------------|--------------------|
---------------------------|-----------------------|--------------------|
---------------------------|-----------------------|--------------------|
--7~-------7----9----10----|-----------------------|--------------------|
--x~-------x---------------|--8~-------------7h8h7-|--------------------|
--x~-------x---------------|-----------------------|--10~---------------|

--------------------|--------------------------------|-------------------|
--------------------|--------------------------------|-------------------|
--------------------|--------------------------------|-------------------|
--9~-------7~-------|--5~-----------x----------------|-------------------|
--x~-------x~-------|--x~---------x~--5~---7~---8~---|--7~---------------|
--x~-------x~-------|--x~-------x~-------------------|-------------------|

C          Em       Am                   F
JAASO GARA JE BHANA JATA SUKAI LAI JOU MALAI
     G                  C
YO MAAN TA MERO NEPALI HO
           E                Am
MALAI GARV CHA HAMRO PHURKA LE
         F    G      C
KATHI BETHA HARU SAHERA
   G                       C
ITHAS MA KATHA TA LEKHE KO CHA

                Em           Am       F
NA NAI LADAI KO MAIDAN BAATA BHAAGI DINCHA
      G               C
NA TA SUNKO TARAJU MA BIKI DINCHA
     E
AAPHNAI KARMA MA ATAL RAHANE
      Am
AAPHNAI PASINA MA BISWAS RAAKHNE
     G                C
YO MAN TA MERO NEPALI HO

Additional Lyrics
NA NAI ARU KO BHAROSAMA BAANCHI DINCHA
NA TA AAPHNO ADHIKAARLAI LUTNA DINCHA
HIMAL JHAIN CHAMKILO SAFA CHA CHAATI
AAKASH JHAIN PHIJIYEKO BISHAL CHA BICHAAR
YO MAN TA MERO NEPALI HO




POST YOUR COMMENTS

OTHER SONGS FROM 1974 A.D.
C Mayalu le Added on 17th Feb 2008 48927 hits
C Mildaina Kathaharu Added on 28th Jul 2007 13464 hits
C Tyo raatko Added on 14th Jan 2006 18772 hits
C Eklo chhu Added on 15th Oct 2005 14369 hits
T NepaliFullTab Added on 8th Oct 2005 16393 hits
T Hidda Hiddai Added on 8th Oct 2005 71823 hits
T PINJADA KO SUGA Added on 8th Oct 2005 20855 hits
C Gurasai fulyo Added on 28th Aug 2005 50102 hits
T Nepali Added on 30th Jul 2005 33672 hits
C Kahile Kahile Added on 18th Jul 2005 19910 hits
C Chaubandi Choli Added on 29th Nov 2004 33167 hits
T Mutu Bhari Bhari Added on 20th Nov 2004 34423 hits
T Sambodhan timilai gardaichu Added on 11th Aug 2004 48010 hits
C Timilai Piratile bandhula Added on 13th Feb 2003 26523 hits
T (1974 AD)Deurali Bhanjyang Added on 13th Feb 2003 16464 hits
C Chundaina Timro Mayale Added on 28th Jan 2003 48652 hits
T Parelima lukai rakhana Added on 15th Jan 2003 69437 hits
T Dherai dherai aauncha manama Added on 15th Jan 2003 62943 hits
NepaloPedia Advertise
NSC APP