FIND YOUR SONG BOOK
CLICK HERE FOR ADVANCED SEARCH

You are here » Nepali Song Chord » 1974 A.D. » PINJADA KO SUGA

PINJADA KO SUGA

Band : 1974 A.D.
Musician : Same
Lyricist : Not Available
Chords Provided by: ADY Tabbed by: Nishan Rai
For more detail chord go to official website of 19
riff
Em D C B *4 all power chords
E|------------------------------|
B|------------------------------|
G|------------------------------|
D|----------9-7-----------------|
A|-7-10-9-7-----10-9------------|
E|------------------------------| repeat this riff several times

change the beat to 4/4 from 2/4

Plucking along with flute:-

   Em                G              Em             C
E|---------------------------------------------------------------------|
B|----------------------------------------3---------------3---3--------|
G|---------0---0-----------0---0------0-------0-------0-----0----------|
D|-----4-----4---------4-----4------4---4---4-------2---2--------------|
A|---2---2-----------2---2--------2---------------3--------------------|
E|-0---------------3---------------------------------------------------| *

Please only play in power chords or u may not get the perfect sound!


E
Balak baburo
G
Deshi ko nau ma
C                         B
hu ma pareko chu pinjada ma
E
makana hareshwa
G
shanti ra chayana
C                          B
sapana bich pani raati bhar chaina
E
mera pandav
G
babu ra ama
C                         B
baschan baan ka ek kuna ma
E
ko sita kholu
G
maan ko taapa
C                         B
gardai pinjada bata bilapa

Play same chords in rest of the lyrics
Solo:-

E|----------15------------------------------------------------------------|
B|-------12--------------------------------10-10h12p10--------------------|
G|----12-----------------------12-------12-------------11-9-12------------|
D|-14------------10-9-13/14-13-------14-----------------------------------|
A|--------------------------------14--------------------------------------|
E|------------------------------------------------------------------------|

E|-12-14-15-14-12h14p127-8-10p7----------------------|
B|-------------------------------8-7h8p7--------------|
G|---------------------------------------9------------|
D|----------------------------------------------------|
A|----------------------------------------------------|
E|----------------------------------------------------|

E|----------------------------14-15-17/19----19----19----19------19-|
B|-15s17-17-15-------------15-------------17----15------------------|
G|-------------16p14p12-16----------------------------16---14/16----|
D|------------------------------------------------------------------|
A|------------------------------------------------------------------|
E|------------------------------------------------------------------|

E|-------------10h14p10-------|
B|----------12----------12----|
G|-------11-------------------|
D|----12----------------------|
A|-14-------------------------|
E|----------------------------| This one is Bm sweep.

E|-10p7-------------------------------------------15-----|
B|------7--5-7-8-7h8p7p5--5-7/8-8-10/12--12-15/17--------|
G|-------------------------------------------------------|
D|-------------------------------------------------------|
A|-------------------------------------------------------|
E|-------------------------------------------------------|

after this repeat the same riff of above.....

changing beat from 4/4 to 2/4

using wah wah with pedal......


E|-12------------------------------------------------------------|
B|-12------------------------------------------------------------|
G|-12-14s16-14p12h14-11h12-11h12p11p9-9h11p9p7/9-11--------------|
D|--------------------------------------------------9-10/12-9----|
A|---------------------------------------------------------------|
E|---------------------------------------------------------------|

E|-7-7-7--12-12-12--7-7-7--15-15-15-7--17-15h17p15-14---------------------------|
B|------------------------------------------------------------------------------|
G|------------------------------------------------------------------------------|
D|------------------------------------------------------------------------------|
A|------------------------------------------------------------------------------|
E|------------------------------------------------------------------------------|

E|------------------------------------------------|
B|-17p15------------------------------------------|
G|-------16p14-11h12p11----------9-11-------------|
D|----------------------12p10h12------------------|
A|------------------------------------------------|
E|------------------------------------------------|

E|----------------------------------------15-15-15--17-17-17--19-19-19--22s24---|
B|-10-10-10--12-12-12--15-15-15--17-17-17---------------------------------------|
G|------------------------------------------------------------------------------|
D|------------------------------------------------------------------------------|
A|------------------------------------------------------------------------------|
E|------------------------------------------------------------------------------|
s=swing    /=slide up     h=hammer on     p=pull off




POST YOUR COMMENTS

OTHER SONGS FROM 1974 A.D.
C Mayalu le Added on 17th Feb 2008 48927 hits
C Mildaina Kathaharu Added on 28th Jul 2007 13464 hits
C Tyo raatko Added on 14th Jan 2006 18772 hits
C Eklo chhu Added on 15th Oct 2005 14369 hits
T NepaliFullTab Added on 8th Oct 2005 16393 hits
T Hidda Hiddai Added on 8th Oct 2005 71823 hits
T PINJADA KO SUGA Added on 8th Oct 2005 20855 hits
C Gurasai fulyo Added on 28th Aug 2005 50102 hits
T Nepali Added on 30th Jul 2005 33671 hits
C Kahile Kahile Added on 18th Jul 2005 19910 hits
C Chaubandi Choli Added on 29th Nov 2004 33167 hits
T Mutu Bhari Bhari Added on 20th Nov 2004 34423 hits
T Sambodhan timilai gardaichu Added on 11th Aug 2004 48010 hits
C Timilai Piratile bandhula Added on 13th Feb 2003 26523 hits
T (1974 AD)Deurali Bhanjyang Added on 13th Feb 2003 16463 hits
C Chundaina Timro Mayale Added on 28th Jan 2003 48652 hits
T Parelima lukai rakhana Added on 15th Jan 2003 69437 hits
T Dherai dherai aauncha manama Added on 15th Jan 2003 62943 hits
NepaloPedia Advertise
NSC APP