FIND YOUR SONG BOOK
CLICK HERE FOR ADVANCED SEARCH

You are here » Nepali Song Chord » Samrit Lwagun » PSYCHO MAKURA 2 – MAKURA KO BADLAA

PSYCHO MAKURA 2 – MAKURA KO BADLAA

Singer : Samrit Lwagun
Musician :
Lyricist :
   
Song Provided By : SAMRIT LWAGUN
PSYCHO MAKURA 2 – MAKURA KO BADLAA GUITAR TABS
SONG BY SAMRIT LWAGUN

b = bend     v = vibrato     t = tap     p = pull of     h = hammer on
/ = Slide up     \ = slide down     x = Repeat    bd = bend down

 

E|-10p5--------------------------16p12--------------------------------------|
B|------8---------------5\6v-----------15-----------------------------------|
G|--------7-5/4---------------------------14-------10p9---------------------|
D|--------------6-3/2------------------------12/9-------10p9/7--------------|
A|-------------------------------------------------------------10-8-7-------|
E|--------------------------------------------------------------------------|
 
E|--------------------------------------------------------------------------------|
B|--------------------------------------------------------------------------------|
G|-5p4p2---2--------4h5p4p2---2----------5p4p2----2--------4h5p4p2----2-----------|
D|-------5---5-4-2----------5---5-3-2-x2--------5---5-4-3----------5---5-4-3—X2---|
A|--------------------------------------------------------------------------------|
E|--------------------------------------------------------------------------------|

E|---------------------------------------------------------------------------------|
B|---------------------------------------------------------------------------------|
G|-5p4p2---2--------4h5p4p2---2--------5p4p2---2-------4h5p4p2---2-----------2---2-|
D|-------5---5-4-2----------5---5-3-2--------5---5-4-2---------5---5-3-2-3-5---5---|
A|---------------------------------------------------------------------------------|
E|--------------------------------------------------------------------------------|
 
 
E|-----------------------------------------------------------------------------------12|
B|--------------------------------------------------------------------------12-13-15---|
G|-4h5p4p2---2—5h8p5p4---4—8h9p8p5---5—9h11p9p8----8—12h14p12p11---11-12-14------------|
D|---------5-----------7-----------9------------10--------------14---------------------|
A|-------------------------------------------------------------------------------------|
E|-------------------------------------------------------------------------------------|
 
E|----------------------------------------------------------------------| 
B|----------------------------------------------------------------------|
G|------------------5h7p5p4-4v---------------------------4-5h7p5p4-4v---|
D|-----------------------------5-4-5---4-5h7p5p4-4-5-7------------------|
A|-2-2-3-5-7-3-5-2-------------------7----------------------------------|
E|----------------------------------------------------------------------|

 

E|-----------------------------------------------------------------------|
B|--------------------7h8p7p5-5---5h7p5p3-3---3h5p3p1--3-5-1-3-0—5p3p1-0-|
G|-----------------------------------------------------------------------|
D|---------------2-------------------------------------------------------|
A|-2-2-3-5-7-3-5---------------------------------------------------------|
E|-----------------------------------------------------------------------|

 

E|----Repeat Above and End it with below------------------------------------|
B|--8p7p5—3h5h7—7p5p3-1h3h5—3-5-1-3-0----5p3p1p0—0--5p3p1p0—-5p3p1p0--0-----|
G|--------------------------------------------------------------------------|
D|--------------------------------------------------------------------------|
A|--------------------------------------------------------------------------|
E|--------------------------------------------------------------------------|

 

E|--------------------------------------------------------------------------|
B|--------------------------------------------------------------------------|
G|----------------------4h5h7p5p4---4h5h7p5p4---5-4v------------------------|
D|-2-4-5-4-5-7-X2—4h5h7-----------7-----------5-----------------------------|
A|--------------------------------------------------------------------------|
E|--------------------------------------------------------------------------|
 
E|-------------------19-17-15--------------------------------------------------|
B|----------------------------19-17-16-19-17-16--------------------------------|
G|-4-5-7-5-7-9-X2-------------------------------19-17-16-19-17-16--------------|
D|----------------------------------------------------------------19-17-16-14v-|
A|-----------------------------------------------------------------------------|
E|-----------------------------------------------------------------------------|

 

E|------------------------------------------------------------------|
B|---------------------------7h8p7---7------------------------------|
G|--4-5-4---4bd—X2--4-5-4---------9----7h9p7—5h7p5---4v-------------|
D|--------7---------------7-----------------------------------------|
A|------------------------------------------------------------------|
E|------------------------------------------------------------------|

E|------------------------------------------------------------------|
B|--------------------------7h8p7---7---10p8p7----------------------|
G|--4-5-4---4bd—X2--4-5-4---------9-------------9p7p5—4v------------|
D|--------7--------------7------------------------------------------|
A|------------------------------------------------------------------|
E|------------------------------------------------------------------|

 

E|------------------8-10-7--10-12-8-10—-7h8h10p8p7-7-7v-------------|
B|---------12-13-10-------------------------------------------------|
G|-4\7-7-9----------------------------------------------------------|
D|------------------------------------------------------------------|
A|------------------------------------------------------------------|
E|------------------------------------------------------------------|
 
 
E|----------------8-10-7--10-12-8-10—-7h8h10—12p10p8-7v-------------|
B|-------12-13-10---------------------------------------------------|
G|-7-7-9------------------------------------------------------------|
D|------------------------------------------------------------------|
A|------------------------------------------------------------------|
E|------------------------------------------------------------------|

 

E|-10-10-12v--14-15-12-15-17-14--17-19-15-17-14h15p14-12-12v--------|
B|------------------------------------------------------------------|
G|------------------------------------------------------------------|
D|------------------------------------------------------------------|
A|------------------------------------------------------------------|
E|------------------------------------------------------------------|

 

E|-12/10-10-12v--14-15-12-15-17-14—(17-19-15-17-14h15p14-12)-X3-----|
B|------------------------------------------------------------------|
G|------------------------------------------------------------------|
D|------------------------------------------------------------------|
A|------------------------------------------------------------------|
E|------------------------------------------------------------------|
 
 
E|--14h15p14-X6--12-------------------------------------------------|
B|------------------13----------------------------------------------|
G|---------------------14--10---------------------------------------|
D|----------------------------13\14---------------------------------|
A|------------------------------------------------------------------|
E|------------------------------------------------------------------|
 
 
E|-----------------------------------------------------------------------|
B|-\5-5-6-6\10--9\10/9\10/6--6\12-10—9\10/9\10/6--6\8/6\8/3—-3\8-6-5v----|
G|-----------------------------------------------------------------------|
D|-----------------------------------------------------------------------|
A|-----------------------------------------------------------------------|
E|-----------------------------------------------------------------------|
 
 
E|---------------------------------------------------------------|
B|-5h6p5p3---3---------------------------------------------------|
G|---------5---5-4—2h4h5p4p2—1h2p1---1h2h4p2p1---1---------------|
D|---------------------------------3-----------3---3-2v----------|
A|---------------------------------------------------------------|
E|---------------------------------------------------------------|
 
 
 
 
 
 
 
E|-----------------------8-11-12--16-12-19-16---------------------|
B|--------------9-10-12-----------------------18------------------|
G|-------7-9-10----------------------------------19-16------------|
D|-6-7-9-----------------------------------------------18-15-14v--|
A|----------------------------------------------------------------|
E|----------------------------------------------------------------|
 
E|----------------------------------------------------------------|
B|----------------------------------------------------------------|
G|---4\--7---10---9------13--10--9---9--10--7---------------------|
D|----------------------------------------------------------------|
A|-2\---5--8---7------11---8--7----7--8---5-----------------------|
E|----------------------------------------------------------------|

E|----------------------------------------------------------------|
B|----------------------------------------------------------------|
G|-----------9----------------------------------------------------|
D|--9-10-12----12-10-9-10-9----9----------------------------------|
A|--------------------------12---12-11-8-7v-----------------------|
E|----------------------------------------------------------------|
 
E|--------------------------------------------------------------|
B|--9-10-10\12-12v-12h13p12-----12-13b-12----12-----------------|
G|--------------------------14------------14----14-13v-13h14p13-|
D|--------------------------------------------------------------|
A|--------------------------------------------------------------|
E|--------------------------------------------------------------|
 
E|--------------------------------------------------------------------------|
B|--------------------------------------------------------------------------|
G|----13-16p14p13----13--------------------------13-13\16-16/10-10\14-14/9v-|
D|-15-------------15----15h17p15p14-14v-12h14h15----------------------------|
A|--------------------------------------------------------------------------|
E|--------------------------------------------------------------------------|

 

E|------------------------------------------------------------------|
B|------------------------------------------------------------------|
G|-9h10h12p10p9—12/9-10-10\12-12v---12h13p12----12-15b-13-12v-------|
D|-------------------------------------------14---------------------|
A|------------------------------------------------------------------|
E|------------------------------------------------------------------|

 

E|-16-13-12-----------17-16-13-----------19-17-16----16-----17v---|
B|----------15-13-12-----------17-15-13-----------18----18b-------|
G|----------------------------------------------------------------|
D|----------------------------------------------------------------|
A|----------------------------------------------------------------|
E|----------------------------------------------------------------|

 

E|-16h17p16---------------------------------------------------------|
B|----------17h18p17—15h17p15—13h15p13---12h13p12----12-------------|
G|------------------------------------------------14----14-13-10-9--|
D|------------------------------------------------------------------|
A|------------------------------------------------------------------|
E|------------------------------------------------------------------|
 
 

 

E|-------------------------------------------------------------------|
B|-------------------------------------------------------------------|
G|-9h10p9----9-13p10p9----9---------------9---------------7----------|
D|--------12-----------12---12-10-9-10-12---12-10--7-9-10---10-9-7-6-|
A|-------------------------------------------------------------------|
E|-------------------------------------------------------------------|

 

 
 
 
 
 
E|--------------------------------------------------|
B|--------------------------------------------------|
G|--------------------------------------------------|
D|--6h7p6---6-—9p7p6--6-----------------------------|
A|--------8---------8---8-7v------------------------|
E|--------------------------------------------------|

 

E|------------------------------------------------------8-11-12---|
B|---------------------------------------6-9-10-9-10-12-----------|
G|-----------------------7-9-10-9-10-13---------------------------|
D|--------6-7-9-9-10-12-------------------------------------------|
A|-7-8-11---------------------------------------------------------|
E|----------------------------------------------------------------|

 

E|-12-13-7-8-----------------------------12-13-13\16v-----|
B|-----------9-10------------------12-13------------------|
G|----------------9-10-------13-14------------------------|
D|---------------------14-15------------------------------|
A|--------------------------------------------------------|
E|--------------------------------------------------------|

 

E|----13-16—17p16p13----13----13-16-17—17p16p13----13--------|
B|-17----------------17----17-------------------17------X2---|
G|-----------------------------------------------------------|
D|-----------------------------------------------------------|
A|-----------------------------------------------------------|
E|-----------------------------------------------------------|

 

E|-19-20-17-19-16h17p16----16------------------------------------|
B|----------------------18----17-18-15-17—18h20p18p17------------|
G|---------------------------------------------------------------|
D|---------------------------------------------------------------|
A|---------------------------------------------------------------|
E|---------------------------------------------------------------|

 

E|----13-16—17p16p13----13----13-16-17—17p16p13----13------------|
B|-17----------------17----17-------------------17------X3-------|
G|---------------------------------------------------------------|
D|---------------------------------------------------------------|
A|---------------------------------------------------------------|
E|---------------------------------------------------------------|
 
E|----13-16-17p16p13---13-19-20-17-19-16h17p16----16-------------|
B|-17----------------17------------------------18----17-18-15-17-|
G|---------------------------------------------------------------|
D|---------------------------------------------------------------|
A|---------------------------------------------------------------|
E|---------------------------------------------------------------|

 

E|-------------------------------------------------|
B|-18h-20p18p17------------------------------------|
G|-------------------------------------------------|
D|-------------------------------------------------|
A|-------------------------------------------------|
E|-------------------------------------------------|

 

 

 

 

 

 

 

 

 

Last Solo

E|------------------------------------------------------------|
B|-6b-6-5v-10b-10-9v-9h10h12--T13p12p10p9-13Tp12p10p9---------|
G|------------------------------------------------------------|
D|------------------------------------------------------------|
A|------------------------------------------------------------|
E|------------------------------------------------------------|
 
E|---------------------------------------------------------|
B|-15T12p10p9—17T12p10p9-15T12p10p9-13T12p10p9-13b-13-12v--|
G|---------------------------------------------------------|
D|---------------------------------------------------------|
A|---------------------------------------------------------|
E|---------------------------------------------------------|

 

E|--------------------------------------------------------|
B|-10-9h10p9---9------------------------------------------|
G|-----------10-10-9h10p9---9-----------------------------|
D|------------------------12-12-10-9h10p9----9------------|
A|----------------------------------------12---12-11-8-7v-|
E|--------------------------------------------------------|

 

E|------------------------------------------------------------|
B|-5h6p5hp6p5---5---------------------------------------------|
G|------------7---7p5p4--------7p5p4--------------------------|
D|----------------------9p7p6--------9p7p6--------9p7p6-------|
A|-----------------------------------------11p8p7------11p8p7-|
E|------------------------------------------------------------|

 

E|----------------------------------------------------------|
B|----------------------------------------------------------|
G|-----------------------9-10-13----------10-13-14----------|
D|--------7-9-10-9-10-12---------10-12-14----------12-14-15-|
A|-7-8-11---------------------------------------------------|
E|----------------------------------------------------------|

 

E|-------------------------------------------------------|
B|-------------------------------------15-17-18-15-17-18-|
G|-13-14-16----------14-16-17-14-16-17-------------------|
D|----------14-15-18-------------------------------------|
A|-------------------------------------------------------|
E|-------------------------------------------------------|

 

Please Note from here am no longer following the backing so you have to count the solo

E|-16-17-19p17p16-/12h13h16p13p12p10-(16p13p1210)x5-----|
B|------------------------------------------------------|
G|------------------------------------------------------|
D|------------------------------------------------------|
A|------------------------------------------------------|
E|------------------------------------------------------|

 

E|-19p17p16p13-x8------------------------------------|
B|-----------------18b-18b-18-17v--------------------|
G|---------------------------------------------------|
D|---------------------------------------------------|
A|---------------------------------------------------|
E|---------------------------------------------------|

 

E|----------17---------------17----17-----------------|
B|-17-18-21---21-18-17-18-21----21----21p18p17h18h21h-|
G|----------------------------------------------------|
D|----------------------------------------------------|
A|----------------------------------------------------|
E|----------------------------------------------------|

 

 
 
 
 
E|-17h19h20p19p17----17h19h20p19p17----17---------------|
B|----------------21----------------21----21-18---------|
G|------------------------------------------------------|
D|------------------------------------------------------|
A|------------------------------------------------------|
E|------------------------------------------------------|

 

E|----------17-----------------17--17-------------------|
B|-17-18-21----21-18-17-18-21----21---21p18p17h18h21h---|
G|------------------------------------------------------|
D|------------------------------------------------------|
A|------------------------------------------------------|
E|------------------------------------------------------|

 

E|-17h19h20—T22p20p19p17-T22-T22p20p19p17----17-------|
B|----------------------------------------21----21-18-|
G|----------------------------------------------------|
D|----------------------------------------------------|
A|----------------------------------------------------|
E|----------------------------------------------------|

 

E|-------------------------------------------------------------------|
B|---17h18p17----17--------------------------------------------------|
G|------------19---19-17-16-16h17p16---16----------------------------|
D|----------------------------------19----19-18-15-14-14h15p14----15-|
A|-------------------------------------------------------------17----|
E|-------------------------------------------------------------------|

 

E|---------------------------------------------------------------|
B|----------------------------------------------------13-15-17---|
G|----------------------------------14-16-17-14-16-17------------|
D|----------------14-15-18-14-15-18------------------------------|
A|-17-15-14-15-17------------------------------------------------|
E|---------------------------------------------------------------|

 

E|-----------13-16-17—20x4-19x4-17x4-16x4-13x4-12x4-13-12-10-x4-|
B|-13-15-17-----------------------------------------------------|
G|--------------------------------------------------------------|
D|--------------------------------------------------------------|
A|--------------------------------------------------------------|
E|--------------------------------------------------------------|

 

E|-13p12p10--13p12p10p7-X2—13p12p10p5-x2--13p12p10p4-x2-|
B|------------------------------------------------------|
G|------------------------------------------------------|
D|------------------------------------------------------|
A|------------------------------------------------------|
E|------------------------------------------------------|

 

E|-13p12p10p5-x2-13p12p10p4-x2---13p12p10p1-13p12p1-13p12p10p1-p0-|
B|----------------------------------------------------------------|
G|----------------------------------------------------------------|
D|----------------------------------------------------------------|
A|----------------------------------------------------------------|
E|----------------------------------------------------------------|

 

E|--0-x8---4-1-0-x6------------------------------------|
B|--------------------3-1-0-x8-------------------------|
G|-----------------------------2p1----x8---------------|
D|---------------------------------3—-----2V-----------|
A|-----------------------------------------------------|
E|-----------------------------------------------------|

 

 





POST YOUR COMMENTS

Video of the Song

OTHER SONGS FROM SAMRIT LWAGUN
T PSYCHO MAKURA 2 – MAKURA KO BADLAA Added on 24th Jul 2016 1137 hits
T Pehla Nasha Rocks Added on 12th Sep 2014 12431 hits
T PSYCHO MAKURA GUITAR TABS Added on 26th Jul 2014 2210 hits
T LOVE OF ARPEGGIOS Added on 28th Jan 2013 1363 hits
C Sundar Sansar Added on 29th Sep 2012 1722 hits
T Gairi Rocks Added on 20th Apr 2012 2458 hits
NepaloPedia Advertise
NSC APP