FIND YOUR SONG BOOK
CLICK HERE FOR ADVANCED SEARCH

You are here » Nepali Song Chord » Dibya Subba » Pachyatap

Pachyatap

Singer : Dibya Subba
Musician : Same
Lyricist : Not Available
Provided by: Saujan

Intro Lead!!!

E|----------------------------------------------------------------------------------|
B|7--8--10---10b--10--8--7------7---------------------5--7--10---15--17b--17p15h17--|
G|--------------------------9-------9b-9--------6--7--------------------------------|
D|----------------------------------------7--9--------------------------------------|
A|----------------------------------------------------------------------------------|
E|----------------------------------------------------------------------------------|

E|-------------------------------------------|
B|--15p14-15--1012---------------------------|
G|-------------------1416--------------------|
D|--------------------------14b14p12--1416---|
A|-------------------------------------------|
E|-------------------------------------------|


G                 C          F             Bb
ma timro aankha ma sajauna kahan yogya chu ra
Bb               C          F
ma timro aanshu bani diyeko chu
     G            C              F             Bb
timro komal mutu maa ma rakhna kahan kabil chu ra
Bb               C           F
tyo mutu malai dukhayeko chu
   F           Bb            C           F
bujina maile timro maya jaba timi ma sanga thiyou
F              Bb            C           F
jaba mahsus gare maile tara timi tada bhaye sakyou
F         C      F       Bb C
yaad auncha timi le bhaneka kura haru
F             C      F              C          C        F
aja ma eklo chu huuu paschatap ma jali rahechu ma jali rahechu
F                C      F
prakriti ko lami sangai bitayeka
F                   C         F
ankha bich chutkara bani biji dincha
F         C      F       Bb C
yaad auncha timi le bhaneka kura haru

SOLO!!

E|---------------------------------------------------------------------------------|
B|----------6---5------------6----------------------8b--8---6--5--6----8--6--8--10-|
G|------5----------7p5--5h7------5b--5-----------5---------------------------------|
D|5--7-----------------------------------5--7--------------------------------------|
A|---------------------------------------------------------------------------------|
E|---------------------------------------------------------------------------------|

E|-8------------------------------------------------------------------------------|
B|----10--8-------------10--11-11---13b--13---10--11------------------------------|
G|-----------10--1012--------------------------------10--12----------10--12b---10-|
D|------------------------------------------------------------10--12--------------|
A|--------------------------------------------------------------------------------|
E|--------------------------------------------------------------------------------|

E|-1315--13b------1315---13------------------------------------------------|
B|-------------15--------------15--13b--13--10--11-------------------------|
G|--------------------------------------------------10--12----------10-----|
D|----------------------------------------------------------10--12---------|
A|-------------------------------------------------------------------------|
E|-------------------------------------------------------------------------|


Additional Lyrics.........
Repeat the same CHORDS!!!!!!

Bujina maile timro maya jaba timi ma sanga thiyou
jaba mahsus gare maile tara timi tada bhaye sakyou
yaad auncha timi le bhaneka kura haru
{aja ma eklo chu huuu paschatap ma jali rahechu ma jali rahechu}*3





POST YOUR COMMENTS

OTHER SONGS FROM DIBYA SUBBA
C Yaad haru Added on 11th Jul 2006 24419 hits
T Pachyatap Added on 17th Apr 2006 32241 hits
NepaloPedia Advertise
NSC APP