FIND YOUR SONG BOOK
CLICK HERE FOR ADVANCED SEARCH

You are here » Nepali Song Chord » Kamal Man Singh » Parkhai ko peeda

Parkhai ko peeda

Singer : Kamal Man Singh
Musician : Same
Lyricist : Not Available
E|------------------------------------|
B|-----------5-----8------------------|
G|-----5-5h7---7h9-----7b-5-7b-5h75---|
D|-5h7--------------------------------|
A|------------------------------------|
E|------------------------------------|

A|-3---------3------------------------|
B|---6-5-------6-5--3-5--6-5--3-------|
G|---------5--------------------5-----|
D|------------------------------------|
A|------------------------------------|
E|------------------------------------|

C
  Parkhai ko peeda bhujinau ki kaso
     Dm
Timi bhanana
C
  Har raat har pal timrai samjhana ma
     Dm
Kati tadapen ma
Dm        Am
Mero maya jhuto hoina
Dm           Am
  teti sasto chaina
     Dm
Timi suna
                C
Nisturi maayale maryo hai
         Am
Mero yo maya lai


E|------------------------------------|
B|-3-5-3-5-3--------------------------|
G|-----------5------------------------|
D|------------------------------------|
A|------------------------------------|
E|------------------------------------|


C
  Sunyata ko aba abaash huna thalyo
   Dm
Yo kolahal ma
C
  Maya le hoina saayed biswaas ghat le
      Dm
katai huna sakcha


C
Jhuto rahecha timro kasam
          Dm  G         C
Jhuto nai cha timro tyo maya
C
Jaaun aba ma kahan jaaun
        Dm  G         C
Sara sansar andhyaro laagcha
     Dm                      C
Timi herana yo man kati roye e




POST YOUR COMMENTS

OTHER SONGS FROM KAMAL MAN SINGH
C O Kati mitho maya Added on 8th Apr 2011 2706 hits
T Parkhai ko peeda Added on 14th Aug 2004 14011 hits
NepaloPedia Advertise
NSC APP