FIND YOUR SONG BOOK
CLICK HERE FOR ADVANCED SEARCH

You are here » Nepali Song Chord » Samrit Lwagun » Pehla Nasha Rocks

Pehla Nasha Rocks

Singer : Samrit Lwagun
Musician :
Lyricist :
   
Song Provided By : Samrit Lwagun
Phela Nasha song arranged and performed by Samri Lwagun in Rock Version. Get the guitar tab kindly provided by Samrit himself.

~ = Vibrate   \ = Slide down   /= Slide up    h = hammer on   P = pull off   B=bend

First Intro

--------10-10~--10h12--10-------------------12-10--14h15p14\10--12--
-12-12---------------------12/10--8--10--10-------------------------
--------------------------------------------------------------------
-12---------------------------------------9-------------------------
--------------------------------------------------------------------
--------------------------------------------------------------------


--------------7-------------------------------------------
--8----8h10-----8-----8----------------8------------------
--9---------------9------9/7---9-9-9------9---\7-7-7h9-7--
-10-------------------------------------------------------
----------------------------------------------------------
----------------------------------------------------------


----------------------------------------------
----------------------------------------------
---------------------------7------------------
---9/7-----7--9--10--9--7-----9--7----7h9p7/5-
----------------------------------------------
----------------------------------------------


-------------------7—7h8p7----------------------
---------------8-------------8-----8\10\12--8~--
------------7------------------7----------------
--------9---------------------------------------
---\10------------------------------------------
------------------------------------------------


2nd Intro Solo

-7-----------------------7-8-7----------------------
---10-10-8-8-7-8-10------------10-8-8~---10~--12~---
----------------------9-----------------------------
----------------------------------------------------
----------------------------------------------------
----------------------------------------------------


--7--7-------10-10--------7h8p7------------------ 
-------10-8---------10b10-------10-8~8--8--8h10-- 
-------------------------------------------------
-------------------------------------------------
-------------------------------------------------
-------------------------------------------------


---7---------10-----7-------7--------10\12-10-
----8—8\10------10----8h10----8-8\10----------
----------------------------------------------
----------------------------------------------
----------------------------------------------
----------------------------------------------


Solo

-7-7--10-10-10\12--7---------10-10---------10--
----------------------8-8\10--------8-7-8------
-----------------------------------------------
-----------------------------------------------
-----------------------------------------------
-----------------------------------------------


----------7-7--10-10--10\12-10-8-7-8-8\10-10-------
-8-7-8-8---------------------------------------10--
---------------------------------------------------
---------------------------------------------------
---------------------------------------------------
---------------------------------------------------


-8\10--10----------------------------8-7-7---------
----------------10-----8-7------7-8----------------
--------------------9------------------------7\9---
---------------------------------------------------
---------------------------------------------------
---------------------------------------------------


-------7-5—5h7p5h7p5h7p5----------------8-7-7----
-7-8----------------------8-7------7-8-----------
--------------------------------9----------------
-------------------------------------------------
-------------------------------------------------
-------------------------------------------------


------7--------10----7-------7--------10\12-10--
-8h10---8—8\10----10----8h10---8-8\10-----------
------------------------------------------------
------------------------------------------------
------------------------------------------------
------------------------------------------------


--7-7--10-10-10\12--7------------10\12--10---
------------------------8-8\10---------------
---------------------------------------------
---------------------------------------------
---------------------------------------------
---------------------------------------------


-7—10\12-7--5--7--7-7-8-10-8—8\10-10\12--------
----------------------------------------10-----
-------------------------------------------7-9-
-----------------------------------------------
-----------------------------------------------
-----------------------------------------------


--------7-8--7-10\12-7-5-7--77-8-10-8--10-10-----
-7-8-10--------------------------------------10--
-------------------------------------------------
-------------------------------------------------
-------------------------------------------------
-------------------------------------------------


-10-8-7--------7-8-7h8p7h8p7-5-7-5h7p5h7p5--3-2-3p2---------
--------10-8-7--------------------------------------5-3-3\5-
------------------------------------------------------------
------------------------------------------------------------
------------------------------------------------------------
------------------------------------------------------------


--------------------------------------------
-5-7-7\8-8-8\10-10-10\12-12-12\13-13-13\15--
--------------------------------------------
--------------------------------------------
--------------------------------------------
--------------------------------------------

------------------------------------
-15-15\17-17-17\19-19-19\20-20-20b--
------------------------------------
------------------------------------
------------------------------------
------------------------------------


---15-14-15---10--12-13-12-12---12--10-----------
---------------------------------------10-10-10--
-------------------------------------------------
-------------------------------------------------
-------------------------------------------------
-------------------------------------------------


--10\12-10-10----15-14-15--10-12-13-13h15p13/12--
-------------------------------------------------
-------------------------------------------------
-------------------------------------------------
-------------------------------------------------
-------------------------------------------------


-12--10----------10\12--10-10----10--8-10--12-13-
---------10-10-----------------------------------
-------------------------------------------------
-------------------------------------------------
-------------------------------------------------
-------------------------------------------------


-12-10--10--8--10--10-8-10--12--13--15---8-8-9-8\10-8--
-------------------------------------------------------
-------------------------------------------------------
-------------------------------------------------------
-------------------------------------------------------
-------------------------------------------------------


-8~-10~-7-7--10-10-10\12--7---------10-10----------10--
----------------------------8-8\10-----------8-7-8-----
-------------------------------------------------------
-------------------------------------------------------
-------------------------------------------------------
-------------------------------------------------------


----------7-7--10-10--10\12--10---8--7--8--8\10--10----
-8-7-8-8--------------------------------------------10-
-------------------------------------------------------
-------------------------------------------------------
-------------------------------------------------------
-------------------------------------------------------


-8\10--10--------------8-7-7--------------------------------------8-7-7-
----------10-8-7---7-8-----------7-8-8\12-8-8\10-12--10-8-7-8-7---------
-----------------9----------7\9---------------------------------9-------
------------------------------------------------------------------------
------------------------------------------------------------------------
------------------------------------------------------------------------


------7--------10---7------7----------10\12-10--
-8h10---8—8\10---10---8h10----8-8\10------------
------------------------------------------------
------------------------------------------------
------------------------------------------------
------------------------------------------------

Following two part, repeat Twice

--------------10-------------------10---------------
-8-8-8--8-7-8----8-7--8-8-8--8-7-8----8-7-----------
------------------------------------------9-9-9--9--
----------------------------------------------------
----------------------------------------------------
----------------------------------------------------


-------7-------------------10------------------
-7-7h8---8-8\10-10---8-7-8------8-7------------
-----------------------------------------------
-----------------------Last part---10-8-7-5-3--
-----------------------------------------------
-----------------------------------------------





POST YOUR COMMENTS

Video of the Song

OTHER SONGS FROM SAMRIT LWAGUN
T PSYCHO MAKURA 2 – MAKURA KO BADLAA Added on 24th Jul 2016 1205 hits
T Pehla Nasha Rocks Added on 12th Sep 2014 12457 hits
T PSYCHO MAKURA GUITAR TABS Added on 26th Jul 2014 2230 hits
T LOVE OF ARPEGGIOS Added on 28th Jan 2013 1377 hits
C Sundar Sansar Added on 29th Sep 2012 1737 hits
T Gairi Rocks Added on 20th Apr 2012 2478 hits
NepaloPedia Advertise
NSC APP