FIND YOUR SONG BOOK
CLICK HERE FOR ADVANCED SEARCH

You are here » Nepali Song Chord » Shadows » Prakrti

Prakrti

Band : Shadows
Musician : Same
Lyricist : Not Available
Provided by: Nitish Shakya.
"G"
E||--------3--3--------3--3-----3--|
B||--------3--3--------3--3-----3--|
G||--------------------------------|
D||--------------------------------|
A||--2--2--------2--2--------2-----|
E||--------------------------------|

"Bb"
|---------6--6--------6--6-----6---|
|---------6--6--------6--6-----6---|
|----------------------------------|
|--5--5---------5--5--------5------|
|----------------------------------|
|----------------------------------|

"C"
|---------8--8--------8--8-----8---|
|---------8--8--------8--8-----8---|
|----------------------------------|
|--7--7---------7--7--------7------|
|----------------------------------|
|----------------------------------|
G                 Bb
 sochechhau timro mero sambandha
G            Bb
 kati purano ho bhanera
G               Bb
 pheri kina malai berthaima
G                 Bb
 metne koshish garchhau harek din
C         G
 he manis mero pani aatma chha
C            G
 malai pani kaate dukhchha
C           G
 mero pani timro jastai man ho
C            G
 malai pani jiuna deu

         C   Bb  G         C  Bb  G
 ma hoon pra-kri-ti malai haasna deu
          C  Bb  G         C   Bb G
 ma hoon pra-kri-ti malai baachna deu

G        Bb
 malai jati maarchhau
G         Bb
 teti nai jhan marchhau
G             Bb
 kahile huri sanga
G            Bb
 kahile pahiro sanga
C           G
 he manis teti pani bujhdainau
C                G
 timro man ho ki dhunga ho
C          G
 mero pani timro jastai aatma ho
C           G
 malai pani ramna deu

          C  Bb  G         C  Bb  G
 ma hoon pra-kri-ti malai haasna deu
          C  Bb  G         C   Bb  G
 ma hoon pra-kri-ti malai baachna deu

G
 ujad mousom ma
Bb                      G
 eklai bachnuparne mero jindagi
G
 hawa huri sanga
Bb                       G
 eklai badhnu parne mero jindagi
C         G
 he manis suna mero dhadkan
C                 G
 yo timro jastai dhadkinchha
C             G
 ekchin pachi suna yasko aawaz
C              G
 timlai sadhai daaki rahanchha

          C  Bb  G         C  Bb  G
 ma hoon pra-kri-ti malai haasna deu
          C  Bb  G         C  Bb   G
 ma hoon pra-kri-ti malai baachna deu




POST YOUR COMMENTS

OTHER SONGS FROM SHADOWS
C Prakrti Added on 14th Jan 2006 11993 hits
T Hidne manche ladchha Added on 3rd Nov 2005 10102 hits
NepaloPedia Advertise
NSC APP