FIND YOUR SONG BOOK
CLICK HERE FOR ADVANCED SEARCH

You are here » Nepali Song Chord » Nima Rumba » PreetiBasyo

PreetiBasyo

Singer : Nima Rumba
Musician : Same
Lyricist : Not Available
Provided by: Mr. Saujan Pradhan
                               x4
Guitar I
e|------------------------------|
b|-3--3--3--3----10--10-10-10---|
g|-2--4--4--4----11--9--9--9----|
d|------------------------------|
a|------------------------------|
e|------------------------------|

guitar II x2
e|---------14--12---------------| e|---------14--12--12--12--12----|
b|-----12----------15--14--12---| b|-----12------------------------|
g|-/14--------------------------| g|-/14---------------------------|
d|------------------------------| d|-------------------------------|
a|------------------------------| a|-------------------------------|
e|------------------------------| e|-------------------------------|

Play all chords on power chord fomat
   
D      A         G        Em   F#   G
1 Mayalu nasama jhumi rahechu
    D   A            G           Em   F#   G
2 harsale gita ma gaai rahe chhu
     D       A             G        Em   F#   G
3 timro muhara aakhama jhalkirahecha
     D        A             G      Em   F#
4 timro maya mutu ma salki rahecha

Play during the end of each 1 & 3 line
Guitar II
e|------------------------------------|
b|------------------------------------|
g|------------------------------------|
d|-----4---2--------------------------|
a|------------5---4---2(2)--4(4)---5--|
e|------------------------------------|

Play during the end of each 2 & 4 line
Guitar II
e|---------3-3-3-3h5--5-5-5--5h7---|
b|---------------------------------|
g|---------------------------------|
d|---------------------------------|
a|---------------------------------|
e|---------------------------------|

Verse 1 and 2 goes the same
here is the chorus

D               A               G               A
aaja timro mero preeta basyo prema bandhanama jeevan fasyo
D               A               G                A
aaja timro mero preeta basyo prema bandhanama jeevan fasyo
E               F#              G              A
bhaghana bhaki timi mageko thiye aaja sapana mero sakar bhayo
D               A               Bm              G/A
ma gauchu ma jhumchu pagal jhai aaja timro nama karauchu
D       A        Bm     G/A
sunideu mayalu timro nimti yo jyanai dincu
D               A               Bm              G/A
ma gauchu ma jhumchu pagal jhai aaja timro nama karauchu
D       A       Bm      G/A
sunideu mayalu timro nimti yo jyanai dincu

Here is the main solo, kind of hard to tab
x4
e|-14-14-14-14-15-14-17-14--------|
b|--------------------------------|
g|--------------------------------|
d|--------------------------------|
a|--------------------------------|
e|--------------------------------|

x4
e|-14-14-14-14-17-14-19-14--------|
b|--------------------------------|
g|--------------------------------|
d|--------------------------------|
a|--------------------------------|
e|--------------------------------|

This TAB part is provided by Mr. Diwas Rai
e-14-14-14-15-14-14-14-17
b-----------------------
g----------------------- x4
d-----------------------
a-----------------------
e-----------------------

e-14-14-14-15-14-14-14-17-14-14-14-19
b-----------------------------------
g----------------------------------- x4
d-----------------------------------
a-----------------------------------
e-----------------------------------

e-15-14-12-15-14-12-15-14-12-15-14-12
b-----------------------------------
g-----------------------------------
d----------------------------------- x4
a-----------------------------------
e-----------------------------------

e-17-15-14-17-15-14-17-15-14-17-15-14
b-----------------------------------
g-----------------------------------
d-----------------------------------x4
a-----------------------------------
e-----------------------------------

e-19-17-15-19-17-15-19-17-15-19-17-15
b-----------------------------------
g----------------------------------- x4
d-----------------------------------
a-----------------------------------
e-----------------------------------

e-14-15-14-12-------------------------
b------------15-14-15-12--------------
g-----------------------14-12-14-12---
d-----------------------------------12 bend
a-------------------------------------
e-------------------------------------




POST YOUR COMMENTS

OTHER SONGS FROM NIMA RUMBA
T Rangau ki ma Added on 20th May 2011 3944 hits
C Ae Kanchi Added on 15th Jul 2006 7070 hits
T PreetiBasyo Added on 2nd Aug 2005 13612 hits
C Auna masanga Gauna Added on 31st May 2005 11561 hits
C Saanjhama pani raat ma pani Added on 2nd Sep 2004 13203 hits
NepaloPedia Advertise
NSC APP