FIND YOUR SONG BOOK
CLICK HERE FOR ADVANCED SEARCH

You are here » Nepali Song Chord » Nabin K Bhattarai » Raat Bityo

Raat Bityo

Singer : Nabin K Bhattarai
Musician :
Lyricist :

Intro Solo

E|----------------------------
A|----------------------------
D|---------------5-7-5-7p-7-5-
G|-----------5-7--------------
B|-----3-5s7------------------
e|-3h5------------------------

 

E|------------------------
A|------------------------
D|-7p-7-----5-----5-7-7s9-
G|------5h7---5h7---------
B|------------------------
e|------------------------ 

 

E|------------------------------
A|-8s10-8-----------------------
D|--------9s7-5-7---5-----------
G|----------------7---5h7---5---
B|------------------------7---7-
e|------------------------------

 

E|--------------------------------8s-
A|------------------------------8----
D|------------------------5-7s9------
G|-------5------------5-7------------
B|-3-5s7---7-5-3--5s7----------------
e|-----------------------------------

 

C                  Am
 Raata bityo hera timlai samjhera
Dm                C
 Dina dhalyo hera timlai kalpera
C                       Am
 Joona le sodhyo priya ke bho bhanera
Dm                  C
 Tara le gijyaidiyo paagal thanera
C           Dm          C
 Swikarcha jasle je bhaneni
C        Dm         C
 Timile bahek je thaneni

 

Play chords as above 

Gulaaf le sodhyo uni ko hun bhanera
Bhane maya meri dil kholera
Nahunu tada timi ko ho bhanera
Bhannu cha dherai maya timilai bhetera





POST YOUR COMMENTS

Video of the Song

OTHER SONGS FROM NABIN K BHATTARAI
T Raat Bityo Added on 16th May 2016 5405 hits
C Ali alikati pida huda ni Added on 16th Aug 2013 10981 hits
C Sanjha pakha ekaantama Added on 26th Aug 2012 16899 hits
T Ye Jhari najhari deu Added on 29th Mar 2012 8364 hits
C Khadai nakhako bish Added on 16th Dec 2011 8384 hits
C Raharai rahar ma Added on 28th Jan 2008 5377 hits
C Ma Maya Laudina Added on 27th Aug 2005 10146 hits
T Timile herda kasailai Added on 20th May 2005 13748 hits
T Yehi ho ta maya Added on 25th Nov 2004 17068 hits
T Yaad sanchi kati basu Added on 28th Feb 2003 9255 hits
C Timro mayale malai satauncha Added on 28th Feb 2003 5052 hits
T Saayed timi nai hau Added on 17th Feb 2003 17602 hits
C Bajaunda bajaundai Added on 15th Feb 2003 3944 hits
C Preet geet rache maile Added on 15th Feb 2003 4373 hits
C Samjhan timro mitho cha Added on 15th Feb 2003 8057 hits
C Bhijeko nazarle Added on 15th Feb 2003 3971 hits
C Aakash runcha Added on 15th Feb 2003 3648 hits
C Yaad ayo pheri aaja Added on 15th Feb 2003 3726 hits
T Aankhama timilai paaunchu Added on 15th Feb 2003 21487 hits
NepaloPedia Advertise
NSC APP