FIND YOUR SONG BOOK
CLICK HERE FOR ADVANCED SEARCH

You are here » Nepali Song Chord » Melodies » Rajamati kumati

Rajamati kumati

Singer : Melodies
Musician : Same
Lyricist : Not Available
This melody is played on F chord base.

  Ra ja ma ti kumati ji ke wosa pi ra ti--  ha ye baba raja--cha  Rajamati ma bil da sa ka si
E|------------1-1-1--1--3--5-3---1--1--0-2---------------------------------------------------|
B|------1--3-----------------------------------1--3-3---3-1-------1-1-1-1---1--3---1-------1-|
G|-2-2--------------------------------------2-----------------3-----------------------3--3---|
D|-------------------------------------------------------------------------------------------|
A|-------------------------------------------------------------------------------------------|
E|-------------------------------------------------------------------------------------------|

   wo netela buwa ha ya byu da raja--  mati-- cha
E|-------------------------------------------------------------------------------------------|
B|-------------------------------------------------------------------------------------------|
G|-3--2-2-2--0-------0--2---2--2-0-----0-2-0-------------------------------------------------|
D|-------------3--3----------------3-----------3---------------------------------------------|
A|-------------------------------------------------------------------------------------------|
E|-------------------------------------------------------------------------------------------|


Additional Lyrics (Play as above)
san dhasa kulikuli mikha dhasa banla banla
Sakumi ya mhya macha la
Khwa dhasa tuyu khwa khwale niga ti du
Dahani ya rajamati cha




POST YOUR COMMENTS

OTHER SONGS FROM MELODIES
T Chati ma mero yo choto bhoto Added on 23rd Aug 2011 8420 hits
T Simsime pani ma Added on 23rd Apr 2011 6992 hits
T DeusiRe Added on 12th Aug 2005 12116 hits
T Rajamati kumati Added on 2nd Sep 2003 7752 hits
T Resam firiri Added on 20th Jan 2003 15454 hits
T MalShree dhun Added on 15th Jan 2003 10930 hits
NepaloPedia Advertise
NSC APP