FIND YOUR SONG BOOK
CLICK HERE FOR ADVANCED SEARCH

You are here » Nepali Song Chord » Nima Rumba » Rangau ki ma

Rangau ki ma

Singer : Nima Rumba
Musician :
Lyricist :
Album : Rangau ki ma

E||----------------------------------||
B||----------------------------------||
G||---5-4-2------------5-4-2---2-5-3-||
D||-2-------5p2-5-2--2-------5-------||
A||----------------------------------||
E||----------------------------------||

 

E|---------3-----------------------------------------------------|
B|-----3-5---5-3---3-5-3-----------------------------------------|
G|-5-5-----------5-------5---4h5p4h5p4h5p4h5p4-------4-2-----4-2-|
D|-----------------------------------------------2-5-----2-5-----|
A|---------------------------------------------------------------|
E|---------------------------------------------------------------|

 

 

Am
Ankha ma bassaun ki ma
                          D   
Timilai mutuma sajaaun ki ma
     C             D           G
Indreni ko saatai ranga le siundo timro
           Am
Rangaun ki ma, Rangaun ki ma,
Am
Sajaun ki ma Rangaun ki ma

 

 

Am               D   
 Sundar ki khani   baisalu jawaani
C                  Am
 Phool haru ko timi rani
Am               D
 Kasto yo mohani   malai lagyou ni
C                  Am
 Jani jani e thuli naani
Am              D
Aba ta chaarai chaina
Am               D
Marna ni gaarai hoina
F
  Yo jyaan timrai naam lekhe
G                 Am
  Aba ta chodne chaina

 

Additional Lyrics, play as above


Sagun dalo boki lyaanchu
Timro ghar mai aaunchu
Maagi diye jaya jaya bhanchu
Nadiye bhagai laanchu
Aba ta darai chaina
Marna ni gaarai hoina
Yo jyaan timrai naam lekhe
Aba ta chodne chaina





POST YOUR COMMENTS

Video of the Song

OTHER SONGS FROM NIMA RUMBA
T Rangau ki ma Added on 20th May 2011 3807 hits
C Ae Kanchi Added on 15th Jul 2006 6933 hits
T PreetiBasyo Added on 2nd Aug 2005 13301 hits
C Auna masanga Gauna Added on 31st May 2005 11303 hits
C Saanjhama pani raat ma pani Added on 2nd Sep 2004 12957 hits
NepaloPedia Advertise
NSC APP