FIND YOUR SONG BOOK
CLICK HERE FOR ADVANCED SEARCH

You are here » Nepali Song Chord » Miscellaneous » Rastriya Gaan

Rastriya Gaan

Singer : Miscellaneous
Musician : Ambar Gurung
Lyricist : Byakul Maila
http://en.wikipedia.org/wiki/Rastriya_Gaan
  sa you thunga phool ka ha mi  eu tai ma la ne pa li
E|--------------------------------------------------------|
B|------------------------3---5---------------------------|
G|-5-4----3-------2----5----------5--4--2------2----------|
D|----------5-------------------------------5-----5--2----|
A|--------------------------------------------------------|
E|--------------------------------------------------------|
  sar ba bhaum bhai phai li e ka me chi  maha       ka li
E|--------------------------------------------------------|
B|--------------------------3-5---------------------------|
G|-------------------2---5-------5---4--2h3p2-------2--2--|
D|---------2----5------------------------------5----------|
A|-2--5---------------------------------------------------|
E|--------------------------------------------------------|

C      Am        C          Am
सयौं थूंगा फूलका हामी, एउटै माला नेपाली
Em        D       C       Am
सार्वभौम भइ फैलिएका, मेची-महाकाली।


Em             Am       C
प्रकृतिका कोटी-कोटी सम्पदाको आंचल
Em           Am       C
वीरहरुका रगतले, स्वतन्त्र र अटल।

   pra kri ti ka koti koti sam pa da ko aanchala
E|------------------------------------------------|
B|-----------------------------5--3---------------|
G|---------2--2-----2----------------2---5-5-5----|
D|-2-2------------5--5-2-2--2---------------------|
A|------------------------------------------------|
E|------------------------------------------------|

  bir    haruko  ragata le   swatantra ra atal
E|-----------------------------------------------|
B|-5p3----3----------------------5--3------------|
G|-----2----5-2--5p2---2---------------2---5-5-5-|
D|-------------------5---5-2--2------------------|
A|-----------------------------------------------|
E|-----------------------------------------------|


ज्ञानभूमि, शान्तिभूमि तराई, पहाड, हिमाल

अखण्ड यो प्यारो हाम्रो मातृभूमि नेपाल।



बहुल जाति, भाषा, धर्म, संस्कृति छन् विशाल

अग्रगामी राष्ट्र हाम्रो, जय जय नेपाल।




POST YOUR COMMENTS

OTHER SONGS FROM MISCELLANEOUS
C Kun baat ma jaandai chau Added on 23rd Jul 2016 1872 hits
C Saune Jharima Added on 13th Mar 2013 3540 hits
C Shanti lukau kahan Added on 27th Oct 2012 5310 hits
C Mutu mero chudi lagin Added on 3rd Oct 2012 3225 hits
C Samhali rakhe yo man Added on 26th Aug 2012 1924 hits
T Tyo_pari_dandaima Added on 21st Jul 2012 3610 hits
C Chari udyo baadal chuna lai Added on 9th Jan 2012 10387 hits
C Memories Added on 7th Jan 2012 2549 hits
C Ke bhanne hamro samaya Added on 2nd Oct 2011 11716 hits
T Tunguna ko dhunma Added on 27th Aug 2011 7300 hits
T Rastriya Gaan Added on 5th Aug 2007 10922 hits
C Bidesh Jane Mayalu Added on 27th Aug 2006 12944 hits
C Malai Maaf gari deu Added on 27th Aug 2006 11687 hits
C SADHAI MA Added on 27th Aug 2006 4998 hits
C Pahilo Maya Added on 11th Jul 2006 7656 hits
C Thakeko e nayan ma Added on 26th Feb 2006 4050 hits
T Antim Lakshya Added on 4th Feb 2006 9947 hits
C Cham cham Added on 27th Jan 2006 7416 hits
C Samaya Added on 14th Jan 2006 5600 hits
C Ma sadhai Added on 14th Jan 2006 5982 hits
C Bujina maile Added on 14th Jan 2006 5916 hits
T Pheri Pani Timro Tasbir Added on 29th Aug 2005 7124 hits
C Saano ma Added on 2nd Jun 2005 8040 hits
C Aakhir tada bhai halyou Added on 31st May 2005 9833 hits
T Phool ko ankhaama Added on 23rd May 2005 15656 hits
C ankha bhari Added on 8th May 2005 6971 hits
C Saagar jhain gahiro Added on 8th Sep 2004 6220 hits
T Lajaalu muskanle preyasi Added on 11th Aug 2004 15969 hits
C Jaagen jaagen sara raat Added on 11th Aug 2004 5087 hits
C Timilai chahanu maile Added on 2nd Dec 2003 5185 hits
C Sanjhaima eklai aauna Added on 2nd Dec 2003 3958 hits
C Eklai eklai ma Added on 21st Feb 2003 4565 hits
C Preet bina youban Added on 13th Feb 2003 4676 hits
C Ma aaphaima haraaunchu Added on 3rd Feb 2003 3292 hits
C Kun desh ki pari hau timi Added on 24th Jan 2003 4363 hits
C Kati baschau ori laajko ghumto Added on 24th Jan 2003 6342 hits
C Gairi Khetko Shirai Hanyo Added on 17th Jan 2003 12092 hits
T Asarai Mahinama Added on 15th Jan 2003 30207 hits
NepaloPedia Advertise
NSC APP